ISO-10303-21;
HEADER;
/* Generated by software containing ST-Developer
 * from STEP Tools, Inc. (www.steptools.com) 
 */

FILE_DESCRIPTION(
/* description */ (''),
/* implementation_level */ '2;1');

FILE_NAME(
/* name */ 
'H:/WebServers/home/kvantocars/www/files/step/Ball-head_screw_v3.step',

/* time_stamp */ '2022-03-24T13:11:38+04:00',
/* author */ (''),
/* organization */ (''),
/* preprocessor_version */ 'ST-DEVELOPER v18.1',
/* originating_system */ 'Autodesk Translation Framework v10.13.0.1454',

/* authorisation */ '');

FILE_SCHEMA (('AUTOMOTIVE_DESIGN { 1 0 10303 214 3 1 1 }'));
ENDSEC;

DATA;
#10=MECHANICAL_DESIGN_GEOMETRIC_PRESENTATION_REPRESENTATION('',(#13),#460);
#11=SHAPE_REPRESENTATION_RELATIONSHIP('SRR','None',#467,#12);
#12=ADVANCED_BREP_SHAPE_REPRESENTATION('',(#14),#459);
#13=STYLED_ITEM('',(#476),#14);
#14=MANIFOLD_SOLID_BREP('Ball-head screw',#264);
#15=SPHERICAL_SURFACE('',#303,1.92999999999939);
#16=FACE_BOUND('',#58,.T.);
#17=FACE_BOUND('',#60,.T.);
#18=CYLINDRICAL_SURFACE('',#283,1.215);
#19=CYLINDRICAL_SURFACE('',#296,2.);
#20=CYLINDRICAL_SURFACE('',#300,0.974999999999999);
#21=PLANE('',#282);
#22=PLANE('',#285);
#23=PLANE('',#286);
#24=PLANE('',#287);
#25=PLANE('',#288);
#26=PLANE('',#289);
#27=PLANE('',#290);
#28=PLANE('',#291);
#29=PLANE('',#292);
#30=PLANE('',#294);
#31=FACE_OUTER_BOUND('',#47,.T.);
#32=FACE_OUTER_BOUND('',#48,.T.);
#33=FACE_OUTER_BOUND('',#49,.T.);
#34=FACE_OUTER_BOUND('',#50,.T.);
#35=FACE_OUTER_BOUND('',#51,.T.);
#36=FACE_OUTER_BOUND('',#52,.T.);
#37=FACE_OUTER_BOUND('',#53,.T.);
#38=FACE_OUTER_BOUND('',#54,.T.);
#39=FACE_OUTER_BOUND('',#55,.T.);
#40=FACE_OUTER_BOUND('',#56,.T.);
#41=FACE_OUTER_BOUND('',#57,.T.);
#42=FACE_OUTER_BOUND('',#59,.T.);
#43=FACE_OUTER_BOUND('',#61,.T.);
#44=FACE_OUTER_BOUND('',#62,.T.);
#45=FACE_OUTER_BOUND('',#63,.T.);
#46=FACE_OUTER_BOUND('',#64,.T.);
#47=EDGE_LOOP('',(#178,#179,#180,#181,#182));
#48=EDGE_LOOP('',(#183));
#49=EDGE_LOOP('',(#184,#185,#186,#187,#188));
#50=EDGE_LOOP('',(#189,#190,#191,#192));
#51=EDGE_LOOP('',(#193,#194,#195,#196));
#52=EDGE_LOOP('',(#197,#198,#199,#200));
#53=EDGE_LOOP('',(#201,#202,#203,#204));
#54=EDGE_LOOP('',(#205,#206,#207,#208));
#55=EDGE_LOOP('',(#209,#210,#211,#212));
#56=EDGE_LOOP('',(#213,#214,#215,#216,#217,#218));
#57=EDGE_LOOP('',(#219));
#58=EDGE_LOOP('',(#220,#221,#222,#223,#224,#225));
#59=EDGE_LOOP('',(#226));
#60=EDGE_LOOP('',(#227));
#61=EDGE_LOOP('',(#228,#229,#230,#231));
#62=EDGE_LOOP('',(#232,#233,#234,#235));
#63=EDGE_LOOP('',(#236,#237,#238,#239,#240));
#64=EDGE_LOOP('',(#241,#242,#243,#244,#245));
#65=LINE('',#390,#88);
#66=LINE('',#397,#89);
#67=LINE('',#401,#90);
#68=LINE('',#403,#91);
#69=LINE('',#405,#92);
#70=LINE('',#406,#93);
#71=LINE('',#409,#94);
#72=LINE('',#411,#95);
#73=LINE('',#412,#96);
#74=LINE('',#415,#97);
#75=LINE('',#417,#98);
#76=LINE('',#418,#99);
#77=LINE('',#421,#100);
#78=LINE('',#423,#101);
#79=LINE('',#424,#102);
#80=LINE('',#427,#103);
#81=LINE('',#429,#104);
#82=LINE('',#430,#105);
#83=LINE('',#432,#106);
#84=LINE('',#433,#107);
#85=LINE('',#444,#108);
#86=LINE('',#448,#109);
#87=LINE('',#454,#110);
#88=VECTOR('',#311,0.954999999999995);
#89=VECTOR('',#322,1.205);
#90=VECTOR('',#325,10.);
#91=VECTOR('',#326,10.);
#92=VECTOR('',#327,10.);
#93=VECTOR('',#328,10.);
#94=VECTOR('',#331,10.);
#95=VECTOR('',#332,10.);
#96=VECTOR('',#333,10.);
#97=VECTOR('',#336,10.);
#98=VECTOR('',#337,10.);
#99=VECTOR('',#338,10.);
#100=VECTOR('',#341,10.);
#101=VECTOR('',#342,10.);
#102=VECTOR('',#343,10.);
#103=VECTOR('',#346,10.);
#104=VECTOR('',#347,10.);
#105=VECTOR('',#348,10.);
#106=VECTOR('',#351,10.);
#107=VECTOR('',#352,10.);
#108=VECTOR('',#367,2.);
#109=VECTOR('',#372,1.4875);
#110=VECTOR('',#379,0.974999999999999);
#111=CIRCLE('',#279,1.215);
#112=CIRCLE('',#280,0.704999999999994);
#113=CIRCLE('',#281,1.215);
#114=CIRCLE('',#284,1.215);
#115=CIRCLE('',#293,1.);
#116=CIRCLE('',#295,2.);
#117=CIRCLE('',#297,2.);
#118=CIRCLE('',#299,0.974999999999999);
#119=CIRCLE('',#301,0.974999999999999);
#120=CIRCLE('',#302,0.974999999999999);
#121=CIRCLE('',#304,1.92999999999939);
#122=VERTEX_POINT('',#386);
#123=VERTEX_POINT('',#387);
#124=VERTEX_POINT('',#389);
#125=VERTEX_POINT('',#395);
#126=VERTEX_POINT('',#399);
#127=VERTEX_POINT('',#400);
#128=VERTEX_POINT('',#402);
#129=VERTEX_POINT('',#404);
#130=VERTEX_POINT('',#408);
#131=VERTEX_POINT('',#410);
#132=VERTEX_POINT('',#414);
#133=VERTEX_POINT('',#416);
#134=VERTEX_POINT('',#420);
#135=VERTEX_POINT('',#422);
#136=VERTEX_POINT('',#426);
#137=VERTEX_POINT('',#428);
#138=VERTEX_POINT('',#436);
#139=VERTEX_POINT('',#439);
#140=VERTEX_POINT('',#442);
#141=VERTEX_POINT('',#446);
#142=VERTEX_POINT('',#450);
#143=VERTEX_POINT('',#451);
#144=EDGE_CURVE('',#122,#123,#111,.F.);
#145=EDGE_CURVE('',#123,#124,#65,.T.);
#146=EDGE_CURVE('',#124,#124,#112,.T.);
#147=EDGE_CURVE('',#123,#122,#113,.F.);
#148=EDGE_CURVE('',#125,#125,#114,.T.);
#149=EDGE_CURVE('',#125,#122,#66,.T.);
#150=EDGE_CURVE('',#126,#127,#67,.T.);
#151=EDGE_CURVE('',#126,#128,#68,.T.);
#152=EDGE_CURVE('',#128,#129,#69,.T.);
#153=EDGE_CURVE('',#127,#129,#70,.T.);
#154=EDGE_CURVE('',#130,#126,#71,.T.);
#155=EDGE_CURVE('',#130,#131,#72,.T.);
#156=EDGE_CURVE('',#131,#128,#73,.T.);
#157=EDGE_CURVE('',#132,#130,#74,.T.);
#158=EDGE_CURVE('',#132,#133,#75,.T.);
#159=EDGE_CURVE('',#133,#131,#76,.T.);
#160=EDGE_CURVE('',#134,#132,#77,.T.);
#161=EDGE_CURVE('',#134,#135,#78,.T.);
#162=EDGE_CURVE('',#135,#133,#79,.T.);
#163=EDGE_CURVE('',#136,#134,#80,.T.);
#164=EDGE_CURVE('',#136,#137,#81,.T.);
#165=EDGE_CURVE('',#137,#135,#82,.T.);
#166=EDGE_CURVE('',#127,#136,#83,.T.);
#167=EDGE_CURVE('',#129,#137,#84,.T.);
#168=EDGE_CURVE('',#138,#138,#115,.T.);
#169=EDGE_CURVE('',#139,#139,#116,.T.);
#170=EDGE_CURVE('',#140,#140,#117,.T.);
#171=EDGE_CURVE('',#140,#139,#85,.T.);
#172=EDGE_CURVE('',#141,#141,#118,.T.);
#173=EDGE_CURVE('',#141,#140,#86,.T.);
#174=EDGE_CURVE('',#142,#143,#119,.T.);
#175=EDGE_CURVE('',#143,#142,#120,.T.);
#176=EDGE_CURVE('',#143,#141,#87,.T.);
#177=EDGE_CURVE('',#142,#138,#121,.T.);
#178=ORIENTED_EDGE('',*,*,#144,.T.);
#179=ORIENTED_EDGE('',*,*,#145,.T.);
#180=ORIENTED_EDGE('',*,*,#146,.T.);
#181=ORIENTED_EDGE('',*,*,#145,.F.);
#182=ORIENTED_EDGE('',*,*,#147,.T.);
#183=ORIENTED_EDGE('',*,*,#146,.F.);
#184=ORIENTED_EDGE('',*,*,#148,.F.);
#185=ORIENTED_EDGE('',*,*,#149,.T.);
#186=ORIENTED_EDGE('',*,*,#147,.F.);
#187=ORIENTED_EDGE('',*,*,#144,.F.);
#188=ORIENTED_EDGE('',*,*,#149,.F.);
#189=ORIENTED_EDGE('',*,*,#150,.F.);
#190=ORIENTED_EDGE('',*,*,#151,.T.);
#191=ORIENTED_EDGE('',*,*,#152,.T.);
#192=ORIENTED_EDGE('',*,*,#153,.F.);
#193=ORIENTED_EDGE('',*,*,#154,.F.);
#194=ORIENTED_EDGE('',*,*,#155,.T.);
#195=ORIENTED_EDGE('',*,*,#156,.T.);
#196=ORIENTED_EDGE('',*,*,#151,.F.);
#197=ORIENTED_EDGE('',*,*,#157,.F.);
#198=ORIENTED_EDGE('',*,*,#158,.T.);
#199=ORIENTED_EDGE('',*,*,#159,.T.);
#200=ORIENTED_EDGE('',*,*,#155,.F.);
#201=ORIENTED_EDGE('',*,*,#160,.F.);
#202=ORIENTED_EDGE('',*,*,#161,.T.);
#203=ORIENTED_EDGE('',*,*,#162,.T.);
#204=ORIENTED_EDGE('',*,*,#158,.F.);
#205=ORIENTED_EDGE('',*,*,#163,.F.);
#206=ORIENTED_EDGE('',*,*,#164,.T.);
#207=ORIENTED_EDGE('',*,*,#165,.T.);
#208=ORIENTED_EDGE('',*,*,#161,.F.);
#209=ORIENTED_EDGE('',*,*,#166,.F.);
#210=ORIENTED_EDGE('',*,*,#153,.T.);
#211=ORIENTED_EDGE('',*,*,#167,.T.);
#212=ORIENTED_EDGE('',*,*,#164,.F.);
#213=ORIENTED_EDGE('',*,*,#167,.F.);
#214=ORIENTED_EDGE('',*,*,#152,.F.);
#215=ORIENTED_EDGE('',*,*,#156,.F.);
#216=ORIENTED_EDGE('',*,*,#159,.F.);
#217=ORIENTED_EDGE('',*,*,#162,.F.);
#218=ORIENTED_EDGE('',*,*,#165,.F.);
#219=ORIENTED_EDGE('',*,*,#168,.T.);
#220=ORIENTED_EDGE('',*,*,#150,.T.);
#221=ORIENTED_EDGE('',*,*,#166,.T.);
#222=ORIENTED_EDGE('',*,*,#163,.T.);
#223=ORIENTED_EDGE('',*,*,#160,.T.);
#224=ORIENTED_EDGE('',*,*,#157,.T.);
#225=ORIENTED_EDGE('',*,*,#154,.T.);
#226=ORIENTED_EDGE('',*,*,#169,.F.);
#227=ORIENTED_EDGE('',*,*,#148,.T.);
#228=ORIENTED_EDGE('',*,*,#170,.F.);
#229=ORIENTED_EDGE('',*,*,#171,.T.);
#230=ORIENTED_EDGE('',*,*,#169,.T.);
#231=ORIENTED_EDGE('',*,*,#171,.F.);
#232=ORIENTED_EDGE('',*,*,#172,.F.);
#233=ORIENTED_EDGE('',*,*,#173,.T.);
#234=ORIENTED_EDGE('',*,*,#170,.T.);
#235=ORIENTED_EDGE('',*,*,#173,.F.);
#236=ORIENTED_EDGE('',*,*,#174,.F.);
#237=ORIENTED_EDGE('',*,*,#175,.F.);
#238=ORIENTED_EDGE('',*,*,#176,.T.);
#239=ORIENTED_EDGE('',*,*,#172,.T.);
#240=ORIENTED_EDGE('',*,*,#176,.F.);
#241=ORIENTED_EDGE('',*,*,#174,.T.);
#242=ORIENTED_EDGE('',*,*,#175,.T.);
#243=ORIENTED_EDGE('',*,*,#177,.T.);
#244=ORIENTED_EDGE('',*,*,#168,.F.);
#245=ORIENTED_EDGE('',*,*,#177,.F.);
#246=CONICAL_SURFACE('',#278,0.954999999999995,0.785398163397448);
#247=CONICAL_SURFACE('',#298,1.4875,1.34599357087462);
#248=ADVANCED_FACE('',(#31),#246,.T.);
#249=ADVANCED_FACE('',(#32),#21,.T.);
#250=ADVANCED_FACE('',(#33),#18,.T.);
#251=ADVANCED_FACE('',(#34),#22,.F.);
#252=ADVANCED_FACE('',(#35),#23,.F.);
#253=ADVANCED_FACE('',(#36),#24,.F.);
#254=ADVANCED_FACE('',(#37),#25,.F.);
#255=ADVANCED_FACE('',(#38),#26,.F.);
#256=ADVANCED_FACE('',(#39),#27,.F.);
#257=ADVANCED_FACE('',(#40),#28,.F.);
#258=ADVANCED_FACE('',(#41,#16),#29,.T.);
#259=ADVANCED_FACE('',(#42,#17),#30,.T.);
#260=ADVANCED_FACE('',(#43),#19,.T.);
#261=ADVANCED_FACE('',(#44),#247,.T.);
#262=ADVANCED_FACE('',(#45),#20,.T.);
#263=ADVANCED_FACE('',(#46),#15,.T.);
#264=CLOSED_SHELL('',(#248,#249,#250,#251,#252,#253,#254,#255,#256,#257,
#258,#259,#260,#261,#262,#263));
#265=DERIVED_UNIT_ELEMENT(#267,1.);
#266=DERIVED_UNIT_ELEMENT(#462,-3.);
#267=(
MASS_UNIT()
NAMED_UNIT(*)
SI_UNIT(.KILO.,.GRAM.)
);
#268=DERIVED_UNIT((#265,#266));
#269=MEASURE_REPRESENTATION_ITEM('density measure',
POSITIVE_RATIO_MEASURE(7850.),#268);
#270=PROPERTY_DEFINITION_REPRESENTATION(#275,#272);
#271=PROPERTY_DEFINITION_REPRESENTATION(#276,#273);
#272=REPRESENTATION('material name',(#274),#459);
#273=REPRESENTATION('density',(#269),#459);
#274=DESCRIPTIVE_REPRESENTATION_ITEM('Steel','Steel');
#275=PROPERTY_DEFINITION('material property','material name',#469);
#276=PROPERTY_DEFINITION('material property','density of part',#469);
#277=AXIS2_PLACEMENT_3D('placement',#384,#305,#306);
#278=AXIS2_PLACEMENT_3D('',#385,#307,#308);
#279=AXIS2_PLACEMENT_3D('',#388,#309,#310);
#280=AXIS2_PLACEMENT_3D('',#391,#312,#313);
#281=AXIS2_PLACEMENT_3D('',#392,#314,#315);
#282=AXIS2_PLACEMENT_3D('',#393,#316,#317);
#283=AXIS2_PLACEMENT_3D('',#394,#318,#319);
#284=AXIS2_PLACEMENT_3D('',#396,#320,#321);
#285=AXIS2_PLACEMENT_3D('',#398,#323,#324);
#286=AXIS2_PLACEMENT_3D('',#407,#329,#330);
#287=AXIS2_PLACEMENT_3D('',#413,#334,#335);
#288=AXIS2_PLACEMENT_3D('',#419,#339,#340);
#289=AXIS2_PLACEMENT_3D('',#425,#344,#345);
#290=AXIS2_PLACEMENT_3D('',#431,#349,#350);
#291=AXIS2_PLACEMENT_3D('',#434,#353,#354);
#292=AXIS2_PLACEMENT_3D('',#435,#355,#356);
#293=AXIS2_PLACEMENT_3D('',#437,#357,#358);
#294=AXIS2_PLACEMENT_3D('',#438,#359,#360);
#295=AXIS2_PLACEMENT_3D('',#440,#361,#362);
#296=AXIS2_PLACEMENT_3D('',#441,#363,#364);
#297=AXIS2_PLACEMENT_3D('',#443,#365,#366);
#298=AXIS2_PLACEMENT_3D('',#445,#368,#369);
#299=AXIS2_PLACEMENT_3D('',#447,#370,#371);
#300=AXIS2_PLACEMENT_3D('',#449,#373,#374);
#301=AXIS2_PLACEMENT_3D('',#452,#375,#376);
#302=AXIS2_PLACEMENT_3D('',#453,#377,#378);
#303=AXIS2_PLACEMENT_3D('',#455,#380,#381);
#304=AXIS2_PLACEMENT_3D('',#456,#382,#383);
#305=DIRECTION('axis',(0.,0.,1.));
#306=DIRECTION('refdir',(1.,0.,0.));
#307=DIRECTION('center_axis',(5.55111512312578E-16,0.,-1.));
#308=DIRECTION('ref_axis',(1.,0.,5.70816292231685E-16));
#309=DIRECTION('center_axis',(5.55111512312579E-16,0.,-1.));
#310=DIRECTION('ref_axis',(-1.,0.,-5.80004565960291E-16));
#311=DIRECTION('',(0.707106781186547,-8.65956056235493E-17,0.707106781186548));
#312=DIRECTION('center_axis',(5.55111512312579E-16,0.,-1.));
#313=DIRECTION('ref_axis',(1.,0.,5.5511151231258E-16));
#314=DIRECTION('center_axis',(5.55111512312579E-16,0.,-1.));
#315=DIRECTION('ref_axis',(-1.,0.,-5.80004565960291E-16));
#316=DIRECTION('center_axis',(-5.55111512312579E-16,0.,1.));
#317=DIRECTION('ref_axis',(1.,0.,5.55111512312579E-16));
#318=DIRECTION('center_axis',(5.55111512312579E-16,0.,-1.));
#319=DIRECTION('ref_axis',(-1.,0.,-5.80004565960291E-16));
#320=DIRECTION('center_axis',(5.55111512312579E-16,0.,-1.));
#321=DIRECTION('ref_axis',(-1.,0.,-5.80004565960291E-16));
#322=DIRECTION('',(-5.55111512312579E-16,0.,1.));
#323=DIRECTION('center_axis',(0.866025403784439,0.5,4.80740671595891E-16));
#324=DIRECTION('ref_axis',(-0.5,0.866025403784439,-2.7755575615629E-16));
#325=DIRECTION('',(-0.5,0.866025403784439,-2.7755575615629E-16));
#326=DIRECTION('',(-5.55111512312578E-16,0.,1.));
#327=DIRECTION('',(-0.5,0.866025403784439,-2.7755575615629E-16));
#328=DIRECTION('',(-5.55111512312578E-16,0.,1.));
#329=DIRECTION('center_axis',(0.866025403784439,-0.5,4.80740671595891E-16));
#330=DIRECTION('ref_axis',(0.5,0.866025403784439,2.7755575615629E-16));
#331=DIRECTION('',(0.5,0.866025403784439,2.7755575615629E-16));
#332=DIRECTION('',(-5.55111512312578E-16,0.,1.));
#333=DIRECTION('',(0.5,0.866025403784439,2.7755575615629E-16));
#334=DIRECTION('center_axis',(3.20493781063927E-16,-1.,1.77909787493173E-31));
#335=DIRECTION('ref_axis',(1.,3.20493781063927E-16,5.55111512312579E-16));
#336=DIRECTION('',(1.,3.20493781063927E-16,5.55111512312579E-16));
#337=DIRECTION('',(-5.55111512312578E-16,0.,1.));
#338=DIRECTION('',(1.,3.20493781063927E-16,5.55111512312579E-16));
#339=DIRECTION('center_axis',(-0.866025403784438,-0.5,-4.80740671595891E-16));
#340=DIRECTION('ref_axis',(0.5,-0.866025403784438,2.7755575615629E-16));
#341=DIRECTION('',(0.5,-0.866025403784438,2.7755575615629E-16));
#342=DIRECTION('',(-5.55111512312578E-16,0.,1.));
#343=DIRECTION('',(0.5,-0.866025403784438,2.7755575615629E-16));
#344=DIRECTION('center_axis',(-0.866025403784439,0.499999999999999,-4.80740671595891E-16));
#345=DIRECTION('ref_axis',(-0.499999999999999,-0.866025403784439,-2.77555756156289E-16));
#346=DIRECTION('',(-0.499999999999999,-0.866025403784439,-2.77555756156289E-16));
#347=DIRECTION('',(-5.55111512312578E-16,0.,1.));
#348=DIRECTION('',(-0.499999999999999,-0.866025403784439,-2.77555756156289E-16));
#349=DIRECTION('center_axis',(-6.40987562127854E-16,1.,-3.55819574986346E-31));
#350=DIRECTION('ref_axis',(-1.,-6.40987562127854E-16,-5.55111512312579E-16));
#351=DIRECTION('',(-1.,-6.40987562127854E-16,-5.55111512312579E-16));
#352=DIRECTION('',(-1.,-6.40987562127854E-16,-5.55111512312579E-16));
#353=DIRECTION('center_axis',(-5.55111512312578E-16,0.,1.));
#354=DIRECTION('ref_axis',(1.,0.,5.55111512312578E-16));
#355=DIRECTION('center_axis',(5.55111512312579E-16,0.,-1.));
#356=DIRECTION('ref_axis',(-1.,0.,-5.55111512312579E-16));
#357=DIRECTION('center_axis',(5.55111512312579E-16,0.,-1.));
#358=DIRECTION('ref_axis',(1.,0.,5.55111512312579E-16));
#359=DIRECTION('center_axis',(-5.55111512312579E-16,0.,1.));
#360=DIRECTION('ref_axis',(1.,0.,5.55111512312579E-16));
#361=DIRECTION('center_axis',(5.55111512312579E-16,0.,-1.));
#362=DIRECTION('ref_axis',(1.,0.,5.55111512312579E-16));
#363=DIRECTION('center_axis',(5.55111512312579E-16,0.,-1.));
#364=DIRECTION('ref_axis',(-1.,0.,-5.80004565960291E-16));
#365=DIRECTION('center_axis',(5.55111512312579E-16,0.,-1.));
#366=DIRECTION('ref_axis',(1.,0.,5.5511151231258E-16));
#367=DIRECTION('',(-5.55111512312579E-16,0.,1.));
#368=DIRECTION('center_axis',(-5.55111512312579E-16,0.,1.));
#369=DIRECTION('ref_axis',(-1.,0.,-5.80004565960291E-16));
#370=DIRECTION('center_axis',(5.55111512312579E-16,0.,-1.));
#371=DIRECTION('ref_axis',(1.,0.,5.55111512312579E-16));
#372=DIRECTION('',(0.974838094515444,-1.19383235213524E-16,0.222914085426422));
#373=DIRECTION('center_axis',(5.55111512312579E-16,0.,-1.));
#374=DIRECTION('ref_axis',(-1.,0.,-5.80004565960291E-16));
#375=DIRECTION('center_axis',(5.55111512312579E-16,0.,-1.));
#376=DIRECTION('ref_axis',(1.,0.,5.55111512312579E-16));
#377=DIRECTION('center_axis',(5.55111512312579E-16,0.,-1.));
#378=DIRECTION('ref_axis',(1.,0.,5.55111512312579E-16));
#379=DIRECTION('',(-5.55111512312579E-16,0.,1.));
#380=DIRECTION('center_axis',(6.12323399573677E-17,0.,1.));
#381=DIRECTION('ref_axis',(1.,0.,0.));
#382=DIRECTION('center_axis',(1.22464679914735E-16,-1.,0.));
#383=DIRECTION('ref_axis',(-1.,-1.22464679914735E-16,0.));
#384=CARTESIAN_POINT('',(0.,0.,0.));
#385=CARTESIAN_POINT('Origin',(-4.62985618894756E-15,0.,9.));
#386=CARTESIAN_POINT('',(1.215,-1.48794586096403E-16,8.74));
#387=CARTESIAN_POINT('',(-1.215,1.48794586096403E-16,8.73999999999999));
#388=CARTESIAN_POINT('Origin',(-4.48552719574629E-15,0.,8.74));
#389=CARTESIAN_POINT('',(-0.704999999999999,8.63375993398877E-17,9.25));
#390=CARTESIAN_POINT('',(-0.954999999999999,1.16953769318572E-16,9.));
#391=CARTESIAN_POINT('Origin',(-4.76863406702571E-15,0.,9.25));
#392=CARTESIAN_POINT('Origin',(-4.48552719574629E-15,0.,8.74));
#393=CARTESIAN_POINT('Origin',(-1.205,0.,9.25));
#394=CARTESIAN_POINT('Origin',(-3.33922192282082E-15,0.,6.675));
#395=CARTESIAN_POINT('',(1.215,-1.48794586096403E-16,4.1));
#396=CARTESIAN_POINT('Origin',(-1.90980977861592E-15,0.,4.1));
#397=CARTESIAN_POINT('',(1.215,-1.48794586096403E-16,6.675));
#398=CARTESIAN_POINT('Origin',(0.86602540378444,2.77555756156289E-16,-1.65072711251667));
#399=CARTESIAN_POINT('',(0.86602540378444,2.90566182226115E-16,-1.65072711251667));
#400=CARTESIAN_POINT('',(0.433012701892221,0.75,-1.65072711251667));
#401=CARTESIAN_POINT('',(0.757772228311385,0.1875,-1.65072711251667));
#402=CARTESIAN_POINT('',(0.866025403784439,2.77555756156289E-16,-0.150727112516674));
#403=CARTESIAN_POINT('',(0.86602540378444,2.90566182226115E-16,-1.65072711251667));
#404=CARTESIAN_POINT('',(0.43301270189222,0.75,-0.150727112516674));
#405=CARTESIAN_POINT('',(0.43301270189222,0.75,-0.150727112516674));
#406=CARTESIAN_POINT('',(0.433012701892221,0.75,-1.65072711251667));
#407=CARTESIAN_POINT('Origin',(0.433012701892221,-0.75,-1.65072711251667));
#408=CARTESIAN_POINT('',(0.433012701892221,-0.75,-1.65072711251667));
#409=CARTESIAN_POINT('',(0.541265877365276,-0.5625,-1.65072711251667));
#410=CARTESIAN_POINT('',(0.43301270189222,-0.75,-0.150727112516674));
#411=CARTESIAN_POINT('',(0.433012701892221,-0.75,-1.65072711251667));
#412=CARTESIAN_POINT('',(0.866025403784439,2.90566182226115E-16,-0.150727112516674));
#413=CARTESIAN_POINT('Origin',(-0.433012701892218,-0.75,-1.65072711251667));
#414=CARTESIAN_POINT('',(-0.433012701892218,-0.75,-1.65072711251667));
#415=CARTESIAN_POINT('',(-0.216506350946109,-0.75,-1.65072711251667));
#416=CARTESIAN_POINT('',(-0.433012701892219,-0.75,-0.150727112516675));
#417=CARTESIAN_POINT('',(-0.433012701892218,-0.75,-1.65072711251667));
#418=CARTESIAN_POINT('',(0.43301270189222,-0.75,-0.150727112516674));
#419=CARTESIAN_POINT('Origin',(-0.866025403784438,-5.55111512312578E-16,
-1.65072711251668));
#420=CARTESIAN_POINT('',(-0.866025403784437,-5.63785129692462E-16,-1.65072711251668));
#421=CARTESIAN_POINT('',(-0.757772228311383,-0.1875,-1.65072711251668));
#422=CARTESIAN_POINT('',(-0.866025403784438,-5.55111512312578E-16,-0.150727112516675));
#423=CARTESIAN_POINT('',(-0.866025403784437,-5.63785129692462E-16,-1.65072711251668));
#424=CARTESIAN_POINT('',(-0.433012701892219,-0.75,-0.150727112516675));
#425=CARTESIAN_POINT('Origin',(-0.433012701892219,0.75,-1.65072711251667));
#426=CARTESIAN_POINT('',(-0.433012701892219,0.75,-1.65072711251667));
#427=CARTESIAN_POINT('',(-0.541265877365274,0.5625,-1.65072711251667));
#428=CARTESIAN_POINT('',(-0.43301270189222,0.75,-0.150727112516675));
#429=CARTESIAN_POINT('',(-0.433012701892219,0.75,-1.65072711251667));
#430=CARTESIAN_POINT('',(-0.866025403784438,-5.63785129692462E-16,-0.150727112516675));
#431=CARTESIAN_POINT('Origin',(0.433012701892221,0.75,-1.65072711251667));
#432=CARTESIAN_POINT('',(0.21650635094611,0.75,-1.65072711251667));
#433=CARTESIAN_POINT('',(-0.43301270189222,0.75,-0.150727112516675));
#434=CARTESIAN_POINT('Origin',(4.85722573273506E-16,0.,-0.150727112516675));
#435=CARTESIAN_POINT('Origin',(6.93889390390723E-16,0.,-1.65072711251667));
#436=CARTESIAN_POINT('',(-0.999999999999999,0.,-1.65072711251667));
#437=CARTESIAN_POINT('Origin',(1.28248504571016E-15,0.,-1.65072711251667));
#438=CARTESIAN_POINT('Origin',(-2.,0.,4.1));
#439=CARTESIAN_POINT('',(2.,-2.4492935982947E-16,4.1));
#440=CARTESIAN_POINT('Origin',(-1.90980977861592E-15,0.,4.1));
#441=CARTESIAN_POINT('Origin',(-1.63225402245963E-15,0.,3.6));
#442=CARTESIAN_POINT('',(2.,-2.4492935982947E-16,3.1));
#443=CARTESIAN_POINT('Origin',(-1.35469826630334E-15,0.,3.1));
#444=CARTESIAN_POINT('',(2.,-2.4492935982947E-16,3.6));
#445=CARTESIAN_POINT('Origin',(-1.28964349968756E-15,0.,2.98280775092419));
#446=CARTESIAN_POINT('',(0.974999999999997,-1.19403062916867E-16,2.86561550184838));
#447=CARTESIAN_POINT('Origin',(-1.22458873307177E-15,0.,2.86561550184838));
#448=CARTESIAN_POINT('',(1.4875,-1.82166211373169E-16,2.98280775092419));
#449=CARTESIAN_POINT('Origin',(-8.91521825684227E-16,0.,2.26561550184838));
#450=CARTESIAN_POINT('',(-0.975,0.,1.66561550184838));
#451=CARTESIAN_POINT('',(0.974999999999999,-1.19403062916867E-16,1.66561550184838));
#452=CARTESIAN_POINT('Origin',(-5.58454918296679E-16,0.,1.66561550184838));
#453=CARTESIAN_POINT('Origin',(-5.58454918296679E-16,0.,1.66561550184838));
#454=CARTESIAN_POINT('',(0.974999999999998,-1.19403062916867E-16,2.26561550184838));
#455=CARTESIAN_POINT('Origin',(0.,0.,0.));
#456=CARTESIAN_POINT('Origin',(0.,0.,0.));
#457=UNCERTAINTY_MEASURE_WITH_UNIT(LENGTH_MEASURE(0.01),#461,
'DISTANCE_ACCURACY_VALUE',
'Maximum model space distance between geometric entities at asserted c
onnectivities');
#458=UNCERTAINTY_MEASURE_WITH_UNIT(LENGTH_MEASURE(0.01),#461,
'DISTANCE_ACCURACY_VALUE',
'Maximum model space distance between geometric entities at asserted c
onnectivities');
#459=(
GEOMETRIC_REPRESENTATION_CONTEXT(3)
GLOBAL_UNCERTAINTY_ASSIGNED_CONTEXT((#457))
GLOBAL_UNIT_ASSIGNED_CONTEXT((#461,#463,#464))
REPRESENTATION_CONTEXT('','3D')
);
#460=(
GEOMETRIC_REPRESENTATION_CONTEXT(3)
GLOBAL_UNCERTAINTY_ASSIGNED_CONTEXT((#458))
GLOBAL_UNIT_ASSIGNED_CONTEXT((#461,#463,#464))
REPRESENTATION_CONTEXT('','3D')
);
#461=(
LENGTH_UNIT()
NAMED_UNIT(*)
SI_UNIT(.MILLI.,.METRE.)
);
#462=(
LENGTH_UNIT()
NAMED_UNIT(*)
SI_UNIT($,.METRE.)
);
#463=(
NAMED_UNIT(*)
PLANE_ANGLE_UNIT()
SI_UNIT($,.RADIAN.)
);
#464=(
NAMED_UNIT(*)
SI_UNIT($,.STERADIAN.)
SOLID_ANGLE_UNIT()
);
#465=SHAPE_DEFINITION_REPRESENTATION(#466,#467);
#466=PRODUCT_DEFINITION_SHAPE('',$,#469);
#467=SHAPE_REPRESENTATION('',(#277),#459);
#468=PRODUCT_DEFINITION_CONTEXT('part definition',#473,'design');
#469=PRODUCT_DEFINITION('Ball-head screw','Ball-head screw v3',#470,#468);
#470=PRODUCT_DEFINITION_FORMATION('',$,#475);
#471=PRODUCT_RELATED_PRODUCT_CATEGORY('Ball-head screw v3',
'Ball-head screw v3',(#475));
#472=APPLICATION_PROTOCOL_DEFINITION('international standard',
'automotive_design',2009,#473);
#473=APPLICATION_CONTEXT(
'Core Data for Automotive Mechanical Design Process');
#474=PRODUCT_CONTEXT('part definition',#473,'mechanical');
#475=PRODUCT('Ball-head screw','Ball-head screw v3',$,(#474));
#476=PRESENTATION_STYLE_ASSIGNMENT((#477));
#477=SURFACE_STYLE_USAGE(.BOTH.,#478);
#478=SURFACE_SIDE_STYLE('',(#479));
#479=SURFACE_STYLE_FILL_AREA(#480);
#480=FILL_AREA_STYLE('Steel - Satin',(#481));
#481=FILL_AREA_STYLE_COLOUR('Steel - Satin',#482);
#482=COLOUR_RGB('Steel - Satin',0.627450980392157,0.627450980392157,0.627450980392157);
ENDSEC;
END-ISO-10303-21;
