ISO-10303-21;
HEADER;
/* Generated by software containing ST-Developer
 * from STEP Tools, Inc. (www.steptools.com) 
 */

FILE_DESCRIPTION(
/* description */ (''),
/* implementation_level */ '2;1');

FILE_NAME(
/* name */ 
'H:/WebServers/home/kvantocars/www/files/step/M2_Lock_nut_v1.step',
/* time_stamp */ '2022-03-24T13:19:06+04:00',
/* author */ (''),
/* organization */ (''),
/* preprocessor_version */ 'ST-DEVELOPER v18.1',
/* originating_system */ 'Autodesk Translation Framework v10.13.0.1454',

/* authorisation */ '');

FILE_SCHEMA (('AUTOMOTIVE_DESIGN { 1 0 10303 214 3 1 1 }'));
ENDSEC;

DATA;
#10=MECHANICAL_DESIGN_GEOMETRIC_PRESENTATION_REPRESENTATION('',(#13,#14),
#647);
#11=SHAPE_REPRESENTATION_RELATIONSHIP('SRR','None',#654,#12);
#12=ADVANCED_BREP_SHAPE_REPRESENTATION('',(#15,#16),#646);
#13=STYLED_ITEM('',(#663),#15);
#14=STYLED_ITEM('',(#664),#16);
#15=MANIFOLD_SOLID_BREP('M2 Lock nut_1',#370);
#16=MANIFOLD_SOLID_BREP('M2 Lock nut_2',#371);
#17=CYLINDRICAL_SURFACE('',#408,1.);
#18=CYLINDRICAL_SURFACE('',#419,1.);
#19=CYLINDRICAL_SURFACE('',#422,1.3);
#20=FACE_BOUND('',#128,.T.);
#21=FACE_BOUND('',#144,.T.);
#22=FACE_BOUND('',#146,.T.);
#23=FACE_BOUND('',#150,.T.);
#24=FACE_BOUND('',#152,.T.);
#25=PLANE('',#398);
#26=PLANE('',#402);
#27=PLANE('',#403);
#28=PLANE('',#404);
#29=PLANE('',#405);
#30=PLANE('',#406);
#31=PLANE('',#407);
#32=PLANE('',#411);
#33=PLANE('',#412);
#34=PLANE('',#413);
#35=PLANE('',#414);
#36=PLANE('',#415);
#37=PLANE('',#416);
#38=PLANE('',#417);
#39=PLANE('',#418);
#40=PLANE('',#425);
#41=PLANE('',#426);
#42=LINE('',#566,#71);
#43=LINE('',#573,#72);
#44=LINE('',#576,#73);
#45=LINE('',#577,#74);
#46=LINE('',#580,#75);
#47=LINE('',#581,#76);
#48=LINE('',#584,#77);
#49=LINE('',#585,#78);
#50=LINE('',#588,#79);
#51=LINE('',#589,#80);
#52=LINE('',#592,#81);
#53=LINE('',#593,#82);
#54=LINE('',#596,#83);
#55=LINE('',#597,#84);
#56=LINE('',#602,#85);
#57=LINE('',#606,#86);
#58=LINE('',#608,#87);
#59=LINE('',#609,#88);
#60=LINE('',#612,#89);
#61=LINE('',#613,#90);
#62=LINE('',#616,#91);
#63=LINE('',#617,#92);
#64=LINE('',#620,#93);
#65=LINE('',#621,#94);
#66=LINE('',#624,#95);
#67=LINE('',#625,#96);
#68=LINE('',#627,#97);
#69=LINE('',#634,#98);
#70=LINE('',#640,#99);
#71=VECTOR('',#455,1.99);
#72=VECTOR('',#464,1.3);
#73=VECTOR('',#467,10.);
#74=VECTOR('',#468,9.99999999999999);
#75=VECTOR('',#471,10.);
#76=VECTOR('',#472,10.);
#77=VECTOR('',#475,10.);
#78=VECTOR('',#476,10.);
#79=VECTOR('',#479,10.);
#80=VECTOR('',#480,10.);
#81=VECTOR('',#483,10.);
#82=VECTOR('',#484,10.);
#83=VECTOR('',#487,9.99999999999999);
#84=VECTOR('',#488,10.);
#85=VECTOR('',#493,1.);
#86=VECTOR('',#498,10.);
#87=VECTOR('',#499,9.99999999999999);
#88=VECTOR('',#500,10.);
#89=VECTOR('',#503,10.);
#90=VECTOR('',#504,10.);
#91=VECTOR('',#507,10.);
#92=VECTOR('',#508,10.);
#93=VECTOR('',#511,10.);
#94=VECTOR('',#512,10.);
#95=VECTOR('',#515,10.);
#96=VECTOR('',#516,10.);
#97=VECTOR('',#519,10.);
#98=VECTOR('',#528,1.);
#99=VECTOR('',#535,1.3);
#100=CONICAL_SURFACE('',#390,1.99,0.0872664625997165);
#101=CONICAL_SURFACE('',#400,1.3,0.0872664625997165);
#102=FACE_OUTER_BOUND('',#125,.T.);
#103=FACE_OUTER_BOUND('',#126,.T.);
#104=FACE_OUTER_BOUND('',#127,.T.);
#105=FACE_OUTER_BOUND('',#129,.T.);
#106=FACE_OUTER_BOUND('',#130,.T.);
#107=FACE_OUTER_BOUND('',#131,.T.);
#108=FACE_OUTER_BOUND('',#132,.T.);
#109=FACE_OUTER_BOUND('',#133,.T.);
#110=FACE_OUTER_BOUND('',#134,.T.);
#111=FACE_OUTER_BOUND('',#135,.T.);
#112=FACE_OUTER_BOUND('',#136,.T.);
#113=FACE_OUTER_BOUND('',#137,.T.);
#114=FACE_OUTER_BOUND('',#138,.T.);
#115=FACE_OUTER_BOUND('',#139,.T.);
#116=FACE_OUTER_BOUND('',#140,.T.);
#117=FACE_OUTER_BOUND('',#141,.T.);
#118=FACE_OUTER_BOUND('',#142,.T.);
#119=FACE_OUTER_BOUND('',#143,.T.);
#120=FACE_OUTER_BOUND('',#145,.T.);
#121=FACE_OUTER_BOUND('',#147,.T.);
#122=FACE_OUTER_BOUND('',#148,.T.);
#123=FACE_OUTER_BOUND('',#149,.T.);
#124=FACE_OUTER_BOUND('',#151,.T.);
#125=EDGE_LOOP('',(#250,#251,#252,#253,#254));
#126=EDGE_LOOP('',(#255,#256,#257,#258,#259,#260,#261,#262,#263,#264,#265));
#127=EDGE_LOOP('',(#266));
#128=EDGE_LOOP('',(#267));
#129=EDGE_LOOP('',(#268,#269,#270,#271));
#130=EDGE_LOOP('',(#272,#273,#274));
#131=EDGE_LOOP('',(#275,#276,#277));
#132=EDGE_LOOP('',(#278,#279,#280));
#133=EDGE_LOOP('',(#281,#282,#283));
#134=EDGE_LOOP('',(#284,#285,#286));
#135=EDGE_LOOP('',(#287,#288,#289,#290));
#136=EDGE_LOOP('',(#291,#292,#293,#294));
#137=EDGE_LOOP('',(#295,#296,#297,#298,#299));
#138=EDGE_LOOP('',(#300,#301,#302,#303,#304));
#139=EDGE_LOOP('',(#305,#306,#307,#308,#309));
#140=EDGE_LOOP('',(#310,#311,#312,#313,#314));
#141=EDGE_LOOP('',(#315,#316,#317,#318,#319));
#142=EDGE_LOOP('',(#320,#321,#322,#323,#324));
#143=EDGE_LOOP('',(#325,#326,#327,#328,#329,#330));
#144=EDGE_LOOP('',(#331));
#145=EDGE_LOOP('',(#332));
#146=EDGE_LOOP('',(#333));
#147=EDGE_LOOP('',(#334,#335,#336,#337));
#148=EDGE_LOOP('',(#338,#339,#340,#341));
#149=EDGE_LOOP('',(#342));
#150=EDGE_LOOP('',(#343));
#151=EDGE_LOOP('',(#344));
#152=EDGE_LOOP('',(#345));
#153=CIRCLE('',#386,1.93959369322526);
#154=CIRCLE('',#387,0.3);
#155=CIRCLE('',#388,1.64073528379774);
#156=CIRCLE('',#389,1.93959369322526);
#157=CIRCLE('',#391,1.99);
#158=CIRCLE('',#392,1.99);
#159=CIRCLE('',#393,1.99);
#160=CIRCLE('',#394,1.99);
#161=CIRCLE('',#395,1.99);
#162=CIRCLE('',#396,1.99);
#163=CIRCLE('',#397,1.99);
#164=CIRCLE('',#399,1.37436536399704);
#165=CIRCLE('',#401,1.3);
#166=CIRCLE('',#409,1.);
#167=CIRCLE('',#410,1.);
#168=CIRCLE('',#420,1.);
#169=CIRCLE('',#421,1.);
#170=CIRCLE('',#423,1.3);
#171=CIRCLE('',#424,1.3);
#172=VERTEX_POINT('',#544);
#173=VERTEX_POINT('',#545);
#174=VERTEX_POINT('',#547);
#175=VERTEX_POINT('',#552);
#176=VERTEX_POINT('',#553);
#177=VERTEX_POINT('',#555);
#178=VERTEX_POINT('',#557);
#179=VERTEX_POINT('',#559);
#180=VERTEX_POINT('',#561);
#181=VERTEX_POINT('',#563);
#182=VERTEX_POINT('',#568);
#183=VERTEX_POINT('',#571);
#184=VERTEX_POINT('',#575);
#185=VERTEX_POINT('',#579);
#186=VERTEX_POINT('',#583);
#187=VERTEX_POINT('',#587);
#188=VERTEX_POINT('',#591);
#189=VERTEX_POINT('',#595);
#190=VERTEX_POINT('',#599);
#191=VERTEX_POINT('',#601);
#192=VERTEX_POINT('',#605);
#193=VERTEX_POINT('',#607);
#194=VERTEX_POINT('',#611);
#195=VERTEX_POINT('',#615);
#196=VERTEX_POINT('',#619);
#197=VERTEX_POINT('',#623);
#198=VERTEX_POINT('',#631);
#199=VERTEX_POINT('',#633);
#200=VERTEX_POINT('',#637);
#201=VERTEX_POINT('',#639);
#202=EDGE_CURVE('',#172,#173,#153,.T.);
#203=EDGE_CURVE('',#173,#174,#154,.T.);
#204=EDGE_CURVE('',#174,#174,#155,.T.);
#205=EDGE_CURVE('',#173,#172,#156,.T.);
#206=EDGE_CURVE('',#175,#176,#157,.T.);
#207=EDGE_CURVE('',#177,#175,#158,.T.);
#208=EDGE_CURVE('',#178,#177,#159,.T.);
#209=EDGE_CURVE('',#179,#178,#160,.T.);
#210=EDGE_CURVE('',#180,#179,#161,.T.);
#211=EDGE_CURVE('',#181,#180,#162,.T.);
#212=EDGE_CURVE('',#176,#181,#163,.T.);
#213=EDGE_CURVE('',#176,#172,#42,.T.);
#214=EDGE_CURVE('',#182,#182,#164,.T.);
#215=EDGE_CURVE('',#183,#183,#165,.T.);
#216=EDGE_CURVE('',#183,#182,#43,.T.);
#217=EDGE_CURVE('',#184,#180,#44,.T.);
#218=EDGE_CURVE('',#181,#184,#45,.T.);
#219=EDGE_CURVE('',#185,#179,#46,.T.);
#220=EDGE_CURVE('',#180,#185,#47,.T.);
#221=EDGE_CURVE('',#186,#178,#48,.T.);
#222=EDGE_CURVE('',#179,#186,#49,.T.);
#223=EDGE_CURVE('',#187,#177,#50,.T.);
#224=EDGE_CURVE('',#178,#187,#51,.T.);
#225=EDGE_CURVE('',#188,#175,#52,.T.);
#226=EDGE_CURVE('',#177,#188,#53,.T.);
#227=EDGE_CURVE('',#189,#181,#54,.T.);
#228=EDGE_CURVE('',#175,#189,#55,.T.);
#229=EDGE_CURVE('',#190,#190,#166,.T.);
#230=EDGE_CURVE('',#190,#191,#56,.T.);
#231=EDGE_CURVE('',#191,#191,#167,.T.);
#232=EDGE_CURVE('',#184,#192,#57,.T.);
#233=EDGE_CURVE('',#193,#192,#58,.T.);
#234=EDGE_CURVE('',#189,#193,#59,.T.);
#235=EDGE_CURVE('',#194,#193,#60,.T.);
#236=EDGE_CURVE('',#188,#194,#61,.T.);
#237=EDGE_CURVE('',#195,#194,#62,.T.);
#238=EDGE_CURVE('',#187,#195,#63,.T.);
#239=EDGE_CURVE('',#196,#195,#64,.T.);
#240=EDGE_CURVE('',#186,#196,#65,.T.);
#241=EDGE_CURVE('',#197,#196,#66,.T.);
#242=EDGE_CURVE('',#185,#197,#67,.T.);
#243=EDGE_CURVE('',#192,#197,#68,.T.);
#244=EDGE_CURVE('',#198,#198,#168,.T.);
#245=EDGE_CURVE('',#198,#199,#69,.T.);
#246=EDGE_CURVE('',#199,#199,#169,.T.);
#247=EDGE_CURVE('',#200,#200,#170,.T.);
#248=EDGE_CURVE('',#200,#201,#70,.T.);
#249=EDGE_CURVE('',#201,#201,#171,.T.);
#250=ORIENTED_EDGE('',*,*,#202,.T.);
#251=ORIENTED_EDGE('',*,*,#203,.T.);
#252=ORIENTED_EDGE('',*,*,#204,.T.);
#253=ORIENTED_EDGE('',*,*,#203,.F.);
#254=ORIENTED_EDGE('',*,*,#205,.T.);
#255=ORIENTED_EDGE('',*,*,#206,.F.);
#256=ORIENTED_EDGE('',*,*,#207,.F.);
#257=ORIENTED_EDGE('',*,*,#208,.F.);
#258=ORIENTED_EDGE('',*,*,#209,.F.);
#259=ORIENTED_EDGE('',*,*,#210,.F.);
#260=ORIENTED_EDGE('',*,*,#211,.F.);
#261=ORIENTED_EDGE('',*,*,#212,.F.);
#262=ORIENTED_EDGE('',*,*,#213,.T.);
#263=ORIENTED_EDGE('',*,*,#205,.F.);
#264=ORIENTED_EDGE('',*,*,#202,.F.);
#265=ORIENTED_EDGE('',*,*,#213,.F.);
#266=ORIENTED_EDGE('',*,*,#204,.F.);
#267=ORIENTED_EDGE('',*,*,#214,.T.);
#268=ORIENTED_EDGE('',*,*,#215,.F.);
#269=ORIENTED_EDGE('',*,*,#216,.T.);
#270=ORIENTED_EDGE('',*,*,#214,.F.);
#271=ORIENTED_EDGE('',*,*,#216,.F.);
#272=ORIENTED_EDGE('',*,*,#211,.T.);
#273=ORIENTED_EDGE('',*,*,#217,.F.);
#274=ORIENTED_EDGE('',*,*,#218,.F.);
#275=ORIENTED_EDGE('',*,*,#210,.T.);
#276=ORIENTED_EDGE('',*,*,#219,.F.);
#277=ORIENTED_EDGE('',*,*,#220,.F.);
#278=ORIENTED_EDGE('',*,*,#209,.T.);
#279=ORIENTED_EDGE('',*,*,#221,.F.);
#280=ORIENTED_EDGE('',*,*,#222,.F.);
#281=ORIENTED_EDGE('',*,*,#208,.T.);
#282=ORIENTED_EDGE('',*,*,#223,.F.);
#283=ORIENTED_EDGE('',*,*,#224,.F.);
#284=ORIENTED_EDGE('',*,*,#207,.T.);
#285=ORIENTED_EDGE('',*,*,#225,.F.);
#286=ORIENTED_EDGE('',*,*,#226,.F.);
#287=ORIENTED_EDGE('',*,*,#206,.T.);
#288=ORIENTED_EDGE('',*,*,#212,.T.);
#289=ORIENTED_EDGE('',*,*,#227,.F.);
#290=ORIENTED_EDGE('',*,*,#228,.F.);
#291=ORIENTED_EDGE('',*,*,#229,.F.);
#292=ORIENTED_EDGE('',*,*,#230,.T.);
#293=ORIENTED_EDGE('',*,*,#231,.F.);
#294=ORIENTED_EDGE('',*,*,#230,.F.);
#295=ORIENTED_EDGE('',*,*,#227,.T.);
#296=ORIENTED_EDGE('',*,*,#218,.T.);
#297=ORIENTED_EDGE('',*,*,#232,.T.);
#298=ORIENTED_EDGE('',*,*,#233,.F.);
#299=ORIENTED_EDGE('',*,*,#234,.F.);
#300=ORIENTED_EDGE('',*,*,#225,.T.);
#301=ORIENTED_EDGE('',*,*,#228,.T.);
#302=ORIENTED_EDGE('',*,*,#234,.T.);
#303=ORIENTED_EDGE('',*,*,#235,.F.);
#304=ORIENTED_EDGE('',*,*,#236,.F.);
#305=ORIENTED_EDGE('',*,*,#223,.T.);
#306=ORIENTED_EDGE('',*,*,#226,.T.);
#307=ORIENTED_EDGE('',*,*,#236,.T.);
#308=ORIENTED_EDGE('',*,*,#237,.F.);
#309=ORIENTED_EDGE('',*,*,#238,.F.);
#310=ORIENTED_EDGE('',*,*,#221,.T.);
#311=ORIENTED_EDGE('',*,*,#224,.T.);
#312=ORIENTED_EDGE('',*,*,#238,.T.);
#313=ORIENTED_EDGE('',*,*,#239,.F.);
#314=ORIENTED_EDGE('',*,*,#240,.F.);
#315=ORIENTED_EDGE('',*,*,#219,.T.);
#316=ORIENTED_EDGE('',*,*,#222,.T.);
#317=ORIENTED_EDGE('',*,*,#240,.T.);
#318=ORIENTED_EDGE('',*,*,#241,.F.);
#319=ORIENTED_EDGE('',*,*,#242,.F.);
#320=ORIENTED_EDGE('',*,*,#217,.T.);
#321=ORIENTED_EDGE('',*,*,#220,.T.);
#322=ORIENTED_EDGE('',*,*,#242,.T.);
#323=ORIENTED_EDGE('',*,*,#243,.F.);
#324=ORIENTED_EDGE('',*,*,#232,.F.);
#325=ORIENTED_EDGE('',*,*,#243,.T.);
#326=ORIENTED_EDGE('',*,*,#241,.T.);
#327=ORIENTED_EDGE('',*,*,#239,.T.);
#328=ORIENTED_EDGE('',*,*,#237,.T.);
#329=ORIENTED_EDGE('',*,*,#235,.T.);
#330=ORIENTED_EDGE('',*,*,#233,.T.);
#331=ORIENTED_EDGE('',*,*,#231,.T.);
#332=ORIENTED_EDGE('',*,*,#215,.T.);
#333=ORIENTED_EDGE('',*,*,#229,.T.);
#334=ORIENTED_EDGE('',*,*,#244,.F.);
#335=ORIENTED_EDGE('',*,*,#245,.T.);
#336=ORIENTED_EDGE('',*,*,#246,.T.);
#337=ORIENTED_EDGE('',*,*,#245,.F.);
#338=ORIENTED_EDGE('',*,*,#247,.T.);
#339=ORIENTED_EDGE('',*,*,#248,.T.);
#340=ORIENTED_EDGE('',*,*,#249,.F.);
#341=ORIENTED_EDGE('',*,*,#248,.F.);
#342=ORIENTED_EDGE('',*,*,#249,.T.);
#343=ORIENTED_EDGE('',*,*,#244,.T.);
#344=ORIENTED_EDGE('',*,*,#247,.F.);
#345=ORIENTED_EDGE('',*,*,#246,.F.);
#346=TOROIDAL_SURFACE('',#385,1.64073528379774,0.3);
#347=ADVANCED_FACE('',(#102),#346,.T.);
#348=ADVANCED_FACE('',(#103),#100,.T.);
#349=ADVANCED_FACE('',(#104,#20),#25,.T.);
#350=ADVANCED_FACE('',(#105),#101,.F.);
#351=ADVANCED_FACE('',(#106),#26,.T.);
#352=ADVANCED_FACE('',(#107),#27,.T.);
#353=ADVANCED_FACE('',(#108),#28,.T.);
#354=ADVANCED_FACE('',(#109),#29,.T.);
#355=ADVANCED_FACE('',(#110),#30,.T.);
#356=ADVANCED_FACE('',(#111),#31,.T.);
#357=ADVANCED_FACE('',(#112),#17,.F.);
#358=ADVANCED_FACE('',(#113),#32,.T.);
#359=ADVANCED_FACE('',(#114),#33,.T.);
#360=ADVANCED_FACE('',(#115),#34,.T.);
#361=ADVANCED_FACE('',(#116),#35,.T.);
#362=ADVANCED_FACE('',(#117),#36,.T.);
#363=ADVANCED_FACE('',(#118),#37,.T.);
#364=ADVANCED_FACE('',(#119,#21),#38,.T.);
#365=ADVANCED_FACE('',(#120,#22),#39,.T.);
#366=ADVANCED_FACE('',(#121),#18,.F.);
#367=ADVANCED_FACE('',(#122),#19,.T.);
#368=ADVANCED_FACE('',(#123,#23),#40,.F.);
#369=ADVANCED_FACE('',(#124,#24),#41,.T.);
#370=CLOSED_SHELL('',(#347,#348,#349,#350,#351,#352,#353,#354,#355,#356,
#357,#358,#359,#360,#361,#362,#363,#364,#365));
#371=CLOSED_SHELL('',(#366,#367,#368,#369));
#372=DERIVED_UNIT_ELEMENT(#374,1.);
#373=DERIVED_UNIT_ELEMENT(#649,-3.);
#374=(
MASS_UNIT()
NAMED_UNIT(*)
SI_UNIT(.KILO.,.GRAM.)
);
#375=DERIVED_UNIT((#372,#373));
#376=MEASURE_REPRESENTATION_ITEM('density measure',
POSITIVE_RATIO_MEASURE(1000.),#375);
#377=PROPERTY_DEFINITION_REPRESENTATION(#382,#379);
#378=PROPERTY_DEFINITION_REPRESENTATION(#383,#380);
#379=REPRESENTATION('material name',(#381),#646);
#380=REPRESENTATION('density',(#376),#646);
#381=DESCRIPTIVE_REPRESENTATION_ITEM('\X2\04220438043F043E0432044B0435\X0\',
'\X2\04220438043F043E0432044B0435\X0\');
#382=PROPERTY_DEFINITION('material property','material name',#656);
#383=PROPERTY_DEFINITION('material property','density of part',#656);
#384=AXIS2_PLACEMENT_3D('placement',#542,#427,#428);
#385=AXIS2_PLACEMENT_3D('',#543,#429,#430);
#386=AXIS2_PLACEMENT_3D('',#546,#431,#432);
#387=AXIS2_PLACEMENT_3D('',#548,#433,#434);
#388=AXIS2_PLACEMENT_3D('',#549,#435,#436);
#389=AXIS2_PLACEMENT_3D('',#550,#437,#438);
#390=AXIS2_PLACEMENT_3D('',#551,#439,#440);
#391=AXIS2_PLACEMENT_3D('',#554,#441,#442);
#392=AXIS2_PLACEMENT_3D('',#556,#443,#444);
#393=AXIS2_PLACEMENT_3D('',#558,#445,#446);
#394=AXIS2_PLACEMENT_3D('',#560,#447,#448);
#395=AXIS2_PLACEMENT_3D('',#562,#449,#450);
#396=AXIS2_PLACEMENT_3D('',#564,#451,#452);
#397=AXIS2_PLACEMENT_3D('',#565,#453,#454);
#398=AXIS2_PLACEMENT_3D('',#567,#456,#457);
#399=AXIS2_PLACEMENT_3D('',#569,#458,#459);
#400=AXIS2_PLACEMENT_3D('',#570,#460,#461);
#401=AXIS2_PLACEMENT_3D('',#572,#462,#463);
#402=AXIS2_PLACEMENT_3D('',#574,#465,#466);
#403=AXIS2_PLACEMENT_3D('',#578,#469,#470);
#404=AXIS2_PLACEMENT_3D('',#582,#473,#474);
#405=AXIS2_PLACEMENT_3D('',#586,#477,#478);
#406=AXIS2_PLACEMENT_3D('',#590,#481,#482);
#407=AXIS2_PLACEMENT_3D('',#594,#485,#486);
#408=AXIS2_PLACEMENT_3D('',#598,#489,#490);
#409=AXIS2_PLACEMENT_3D('',#600,#491,#492);
#410=AXIS2_PLACEMENT_3D('',#603,#494,#495);
#411=AXIS2_PLACEMENT_3D('',#604,#496,#497);
#412=AXIS2_PLACEMENT_3D('',#610,#501,#502);
#413=AXIS2_PLACEMENT_3D('',#614,#505,#506);
#414=AXIS2_PLACEMENT_3D('',#618,#509,#510);
#415=AXIS2_PLACEMENT_3D('',#622,#513,#514);
#416=AXIS2_PLACEMENT_3D('',#626,#517,#518);
#417=AXIS2_PLACEMENT_3D('',#628,#520,#521);
#418=AXIS2_PLACEMENT_3D('',#629,#522,#523);
#419=AXIS2_PLACEMENT_3D('',#630,#524,#525);
#420=AXIS2_PLACEMENT_3D('',#632,#526,#527);
#421=AXIS2_PLACEMENT_3D('',#635,#529,#530);
#422=AXIS2_PLACEMENT_3D('',#636,#531,#532);
#423=AXIS2_PLACEMENT_3D('',#638,#533,#534);
#424=AXIS2_PLACEMENT_3D('',#641,#536,#537);
#425=AXIS2_PLACEMENT_3D('',#642,#538,#539);
#426=AXIS2_PLACEMENT_3D('',#643,#540,#541);
#427=DIRECTION('axis',(0.,0.,1.));
#428=DIRECTION('refdir',(1.,0.,0.));
#429=DIRECTION('center_axis',(0.,-1.,0.));
#430=DIRECTION('ref_axis',(0.,0.,-1.));
#431=DIRECTION('center_axis',(0.,1.,0.));
#432=DIRECTION('ref_axis',(1.,0.,-6.12323399573677E-17));
#433=DIRECTION('center_axis',(-1.,0.,-1.22464679914735E-16));
#434=DIRECTION('ref_axis',(-1.22464679914735E-16,0.,1.));
#435=DIRECTION('center_axis',(0.,-1.,0.));
#436=DIRECTION('ref_axis',(1.,0.,0.));
#437=DIRECTION('center_axis',(0.,1.,0.));
#438=DIRECTION('ref_axis',(1.,0.,-6.12323399573677E-17));
#439=DIRECTION('center_axis',(0.,-1.,0.));
#440=DIRECTION('ref_axis',(1.,0.,0.));
#441=DIRECTION('center_axis',(0.,-1.,0.));
#442=DIRECTION('ref_axis',(1.,0.,0.));
#443=DIRECTION('center_axis',(0.,-1.,0.));
#444=DIRECTION('ref_axis',(1.,0.,0.));
#445=DIRECTION('center_axis',(0.,-1.,0.));
#446=DIRECTION('ref_axis',(1.,0.,0.));
#447=DIRECTION('center_axis',(0.,-1.,0.));
#448=DIRECTION('ref_axis',(1.,0.,0.));
#449=DIRECTION('center_axis',(0.,-1.,0.));
#450=DIRECTION('ref_axis',(1.,0.,0.));
#451=DIRECTION('center_axis',(0.,-1.,0.));
#452=DIRECTION('ref_axis',(1.,0.,0.));
#453=DIRECTION('center_axis',(0.,-1.,0.));
#454=DIRECTION('ref_axis',(1.,0.,0.));
#455=DIRECTION('',(0.0871557427476582,0.996194698091746,1.0673500138323E-17));
#456=DIRECTION('center_axis',(0.,1.,0.));
#457=DIRECTION('ref_axis',(0.,0.,1.));
#458=DIRECTION('center_axis',(0.,-1.,0.));
#459=DIRECTION('ref_axis',(1.,0.,0.));
#460=DIRECTION('center_axis',(0.,1.,0.));
#461=DIRECTION('ref_axis',(1.,0.,0.));
#462=DIRECTION('center_axis',(0.,1.,0.));
#463=DIRECTION('ref_axis',(1.,0.,0.));
#464=DIRECTION('',(-0.0871557427476582,0.996194698091746,1.0673500138323E-17));
#465=DIRECTION('center_axis',(0.,1.,0.));
#466=DIRECTION('ref_axis',(0.,0.,1.));
#467=DIRECTION('',(1.,0.,4.83156453865217E-16));
#468=DIRECTION('',(0.5,0.,-0.866025403784438));
#469=DIRECTION('center_axis',(0.,1.,0.));
#470=DIRECTION('ref_axis',(0.,0.,1.));
#471=DIRECTION('',(0.5,0.,0.866025403784439));
#472=DIRECTION('',(1.,0.,4.83156453865217E-16));
#473=DIRECTION('center_axis',(0.,1.,0.));
#474=DIRECTION('ref_axis',(0.,0.,1.));
#475=DIRECTION('',(-0.5,0.,0.866025403784439));
#476=DIRECTION('',(0.5,0.,0.866025403784439));
#477=DIRECTION('center_axis',(0.,1.,0.));
#478=DIRECTION('ref_axis',(0.,0.,1.));
#479=DIRECTION('',(-1.,0.,0.));
#480=DIRECTION('',(-0.5,0.,0.866025403784439));
#481=DIRECTION('center_axis',(0.,1.,0.));
#482=DIRECTION('ref_axis',(0.,0.,1.));
#483=DIRECTION('',(-0.5,0.,-0.866025403784439));
#484=DIRECTION('',(-1.,0.,0.));
#485=DIRECTION('center_axis',(0.,1.,0.));
#486=DIRECTION('ref_axis',(0.,0.,1.));
#487=DIRECTION('',(0.5,0.,-0.866025403784438));
#488=DIRECTION('',(-0.5,0.,-0.866025403784439));
#489=DIRECTION('center_axis',(0.,-1.,0.));
#490=DIRECTION('ref_axis',(1.,0.,0.));
#491=DIRECTION('center_axis',(0.,-1.,0.));
#492=DIRECTION('ref_axis',(1.,0.,0.));
#493=DIRECTION('',(0.,-1.,0.));
#494=DIRECTION('center_axis',(0.,1.,0.));
#495=DIRECTION('ref_axis',(1.,0.,0.));
#496=DIRECTION('center_axis',(-0.866025403784438,0.,-0.500000000000001));
#497=DIRECTION('ref_axis',(0.500000000000001,0.,-0.866025403784438));
#498=DIRECTION('',(0.,-1.,0.));
#499=DIRECTION('',(0.5,0.,-0.866025403784438));
#500=DIRECTION('',(0.,-1.,0.));
#501=DIRECTION('center_axis',(-0.866025403784439,0.,0.5));
#502=DIRECTION('ref_axis',(-0.5,0.,-0.866025403784439));
#503=DIRECTION('',(-0.5,0.,-0.866025403784439));
#504=DIRECTION('',(0.,-1.,0.));
#505=DIRECTION('center_axis',(0.,0.,1.));
#506=DIRECTION('ref_axis',(-1.,0.,0.));
#507=DIRECTION('',(-1.,0.,0.));
#508=DIRECTION('',(0.,-1.,0.));
#509=DIRECTION('center_axis',(0.866025403784439,0.,0.5));
#510=DIRECTION('ref_axis',(-0.5,0.,0.866025403784439));
#511=DIRECTION('',(-0.5,0.,0.866025403784439));
#512=DIRECTION('',(0.,-1.,0.));
#513=DIRECTION('center_axis',(0.866025403784439,0.,-0.5));
#514=DIRECTION('ref_axis',(0.5,0.,0.866025403784439));
#515=DIRECTION('',(0.5,0.,0.866025403784439));
#516=DIRECTION('',(0.,-1.,0.));
#517=DIRECTION('center_axis',(4.83156453865217E-16,0.,-1.));
#518=DIRECTION('ref_axis',(1.,0.,4.83156453865217E-16));
#519=DIRECTION('',(1.,0.,4.83156453865217E-16));
#520=DIRECTION('center_axis',(0.,-1.,0.));
#521=DIRECTION('ref_axis',(0.,0.,-1.));
#522=DIRECTION('center_axis',(0.,1.,0.));
#523=DIRECTION('ref_axis',(0.,0.,1.));
#524=DIRECTION('center_axis',(0.,1.,0.));
#525=DIRECTION('ref_axis',(1.,0.,0.));
#526=DIRECTION('center_axis',(0.,1.,0.));
#527=DIRECTION('ref_axis',(1.,0.,0.));
#528=DIRECTION('',(0.,1.,0.));
#529=DIRECTION('center_axis',(0.,1.,0.));
#530=DIRECTION('ref_axis',(1.,0.,0.));
#531=DIRECTION('center_axis',(0.,1.,0.));
#532=DIRECTION('ref_axis',(1.,0.,0.));
#533=DIRECTION('center_axis',(0.,-1.,0.));
#534=DIRECTION('ref_axis',(1.,0.,0.));
#535=DIRECTION('',(0.,-1.,0.));
#536=DIRECTION('center_axis',(0.,-1.,0.));
#537=DIRECTION('ref_axis',(1.,0.,0.));
#538=DIRECTION('center_axis',(0.,1.,0.));
#539=DIRECTION('ref_axis',(0.,0.,1.));
#540=DIRECTION('center_axis',(0.,1.,0.));
#541=DIRECTION('ref_axis',(0.,0.,1.));
#542=CARTESIAN_POINT('',(0.,0.,0.));
#543=CARTESIAN_POINT('Origin',(0.,0.55,0.));
#544=CARTESIAN_POINT('',(-1.93959369322526,0.576146722824297,4.75063441610942E-16));
#545=CARTESIAN_POINT('',(-2.37531720805471E-16,0.576146722824297,1.93959369322526));
#546=CARTESIAN_POINT('Origin',(0.,0.576146722824297,1.18765860402735E-16));
#547=CARTESIAN_POINT('',(-2.00932121355103E-16,0.85,1.64073528379774));
#548=CARTESIAN_POINT('Origin',(-2.00932121355103E-16,0.55,1.64073528379774));
#549=CARTESIAN_POINT('Origin',(0.,0.85,0.));
#550=CARTESIAN_POINT('Origin',(0.,0.576146722824297,1.18765860402735E-16));
#551=CARTESIAN_POINT('Origin',(0.,0.,0.));
#552=CARTESIAN_POINT('',(-1.72339055353103,0.,0.994999999999999));
#553=CARTESIAN_POINT('',(-1.99,-2.40985256287533E-17,-2.43704713030323E-16));
#554=CARTESIAN_POINT('Origin',(0.,0.,0.));
#555=CARTESIAN_POINT('',(0.,0.,1.99));
#556=CARTESIAN_POINT('Origin',(0.,0.,0.));
#557=CARTESIAN_POINT('',(1.72339055353103,0.,0.995));
#558=CARTESIAN_POINT('Origin',(0.,0.,0.));
#559=CARTESIAN_POINT('',(1.72339055353103,0.,-0.994999999999999));
#560=CARTESIAN_POINT('Origin',(0.,0.,0.));
#561=CARTESIAN_POINT('',(9.71445146547012E-16,0.,-1.99));
#562=CARTESIAN_POINT('Origin',(0.,0.,0.));
#563=CARTESIAN_POINT('',(-1.72339055353103,0.,-0.995000000000001));
#564=CARTESIAN_POINT('Origin',(0.,0.,0.));
#565=CARTESIAN_POINT('Origin',(0.,0.,0.));
#566=CARTESIAN_POINT('',(-1.99,0.,-2.43704713030323E-16));
#567=CARTESIAN_POINT('Origin',(1.94652794023228E-16,0.85,-2.90573446562279E-17));
#568=CARTESIAN_POINT('',(-1.37436536399704,0.85,-1.68311214387796E-16));
#569=CARTESIAN_POINT('Origin',(0.,0.85,0.));
#570=CARTESIAN_POINT('Origin',(0.,0.,0.));
#571=CARTESIAN_POINT('',(-1.3,0.,1.59204083889156E-16));
#572=CARTESIAN_POINT('Origin',(0.,0.,0.));
#573=CARTESIAN_POINT('',(-1.3,0.,1.59204083889156E-16));
#574=CARTESIAN_POINT('Origin',(-9.05918350997282E-16,0.,-4.52959175498641E-16));
#575=CARTESIAN_POINT('',(-1.14892703568735,0.,-1.99));
#576=CARTESIAN_POINT('',(-1.14892703568735,0.,-1.99));
#577=CARTESIAN_POINT('',(-2.29785407137471,0.,-1.6882705320588E-15));
#578=CARTESIAN_POINT('Origin',(-9.05918350997282E-16,0.,-4.52959175498641E-16));
#579=CARTESIAN_POINT('',(1.14892703568735,0.,-1.99));
#580=CARTESIAN_POINT('',(1.14892703568735,0.,-1.99));
#581=CARTESIAN_POINT('',(-1.14892703568735,0.,-1.99));
#582=CARTESIAN_POINT('Origin',(-9.05918350997282E-16,0.,-4.52959175498641E-16));
#583=CARTESIAN_POINT('',(2.29785407137471,0.,2.06511934359604E-16));
#584=CARTESIAN_POINT('',(2.29785407137471,0.,2.06511934359604E-16));
#585=CARTESIAN_POINT('',(1.14892703568735,0.,-1.99));
#586=CARTESIAN_POINT('Origin',(-9.05918350997282E-16,0.,-4.52959175498641E-16));
#587=CARTESIAN_POINT('',(1.14892703568735,0.,1.99));
#588=CARTESIAN_POINT('',(1.14892703568735,0.,1.99));
#589=CARTESIAN_POINT('',(2.29785407137471,0.,2.06511934359604E-16));
#590=CARTESIAN_POINT('Origin',(-9.05918350997282E-16,0.,-4.52959175498641E-16));
#591=CARTESIAN_POINT('',(-1.14892703568736,0.,1.99));
#592=CARTESIAN_POINT('',(-1.14892703568736,0.,1.99));
#593=CARTESIAN_POINT('',(1.14892703568735,0.,1.99));
#594=CARTESIAN_POINT('Origin',(-9.05918350997282E-16,0.,-4.52959175498641E-16));
#595=CARTESIAN_POINT('',(-2.29785407137471,0.,-1.6882705320588E-15));
#596=CARTESIAN_POINT('',(-2.29785407137471,0.,-1.6882705320588E-15));
#597=CARTESIAN_POINT('',(-1.14892703568736,0.,1.99));
#598=CARTESIAN_POINT('Origin',(0.,0.,0.));
#599=CARTESIAN_POINT('',(-1.,0.,1.22464679914735E-16));
#600=CARTESIAN_POINT('Origin',(0.,0.,0.));
#601=CARTESIAN_POINT('',(-1.,-2.,1.22464679914735E-16));
#602=CARTESIAN_POINT('',(-1.,0.,-1.22464679914735E-16));
#603=CARTESIAN_POINT('Origin',(0.,-2.,0.));
#604=CARTESIAN_POINT('Origin',(-2.29785407137471,0.,-1.6882705320588E-15));
#605=CARTESIAN_POINT('',(-1.14892703568735,-2.,-1.99));
#606=CARTESIAN_POINT('',(-1.14892703568735,0.,-1.99));
#607=CARTESIAN_POINT('',(-2.29785407137471,-2.,-1.66533453693773E-15));
#608=CARTESIAN_POINT('',(-2.29785407137471,-2.,-1.6882705320588E-15));
#609=CARTESIAN_POINT('',(-2.29785407137471,0.,-1.6882705320588E-15));
#610=CARTESIAN_POINT('Origin',(-1.14892703568736,0.,1.99));
#611=CARTESIAN_POINT('',(-1.14892703568736,-2.,1.99));
#612=CARTESIAN_POINT('',(-1.14892703568736,-2.,1.99));
#613=CARTESIAN_POINT('',(-1.14892703568736,0.,1.99));
#614=CARTESIAN_POINT('Origin',(1.14892703568735,0.,1.99));
#615=CARTESIAN_POINT('',(1.14892703568735,-2.,1.99));
#616=CARTESIAN_POINT('',(1.14892703568735,-2.,1.99));
#617=CARTESIAN_POINT('',(1.14892703568735,0.,1.99));
#618=CARTESIAN_POINT('Origin',(2.29785407137471,0.,2.06511934359604E-16));
#619=CARTESIAN_POINT('',(2.29785407137471,-2.,2.77555756156289E-16));
#620=CARTESIAN_POINT('',(2.29785407137471,-2.,2.06511934359604E-16));
#621=CARTESIAN_POINT('',(2.29785407137471,0.,2.06511934359604E-16));
#622=CARTESIAN_POINT('Origin',(1.14892703568735,0.,-1.99));
#623=CARTESIAN_POINT('',(1.14892703568735,-2.,-1.99));
#624=CARTESIAN_POINT('',(1.14892703568735,-2.,-1.99));
#625=CARTESIAN_POINT('',(1.14892703568735,0.,-1.99));
#626=CARTESIAN_POINT('Origin',(-1.14892703568735,0.,-1.99));
#627=CARTESIAN_POINT('',(-1.14892703568735,-2.,-1.99));
#628=CARTESIAN_POINT('Origin',(-9.71445146547012E-16,-2.,-5.55111512312578E-16));
#629=CARTESIAN_POINT('Origin',(-9.05918350997282E-16,0.,-4.52959175498641E-16));
#630=CARTESIAN_POINT('Origin',(0.,0.,0.));
#631=CARTESIAN_POINT('',(-1.,0.,1.22464679914735E-16));
#632=CARTESIAN_POINT('Origin',(0.,0.,0.));
#633=CARTESIAN_POINT('',(-1.,0.85,1.22464679914735E-16));
#634=CARTESIAN_POINT('',(-1.,0.,1.22464679914735E-16));
#635=CARTESIAN_POINT('Origin',(0.,0.85,0.));
#636=CARTESIAN_POINT('Origin',(0.,0.,0.));
#637=CARTESIAN_POINT('',(-1.3,0.85,-1.59204083889156E-16));
#638=CARTESIAN_POINT('Origin',(0.,0.85,0.));
#639=CARTESIAN_POINT('',(-1.3,0.,1.59204083889156E-16));
#640=CARTESIAN_POINT('',(-1.3,0.,1.59204083889156E-16));
#641=CARTESIAN_POINT('Origin',(0.,0.,0.));
#642=CARTESIAN_POINT('Origin',(5.77470961183734E-17,0.,0.));
#643=CARTESIAN_POINT('Origin',(0.,0.85,0.));
#644=UNCERTAINTY_MEASURE_WITH_UNIT(LENGTH_MEASURE(0.01),#648,
'DISTANCE_ACCURACY_VALUE',
'Maximum model space distance between geometric entities at asserted c
onnectivities');
#645=UNCERTAINTY_MEASURE_WITH_UNIT(LENGTH_MEASURE(0.01),#648,
'DISTANCE_ACCURACY_VALUE',
'Maximum model space distance between geometric entities at asserted c
onnectivities');
#646=(
GEOMETRIC_REPRESENTATION_CONTEXT(3)
GLOBAL_UNCERTAINTY_ASSIGNED_CONTEXT((#644))
GLOBAL_UNIT_ASSIGNED_CONTEXT((#648,#650,#651))
REPRESENTATION_CONTEXT('','3D')
);
#647=(
GEOMETRIC_REPRESENTATION_CONTEXT(3)
GLOBAL_UNCERTAINTY_ASSIGNED_CONTEXT((#645))
GLOBAL_UNIT_ASSIGNED_CONTEXT((#648,#650,#651))
REPRESENTATION_CONTEXT('','3D')
);
#648=(
LENGTH_UNIT()
NAMED_UNIT(*)
SI_UNIT(.MILLI.,.METRE.)
);
#649=(
LENGTH_UNIT()
NAMED_UNIT(*)
SI_UNIT($,.METRE.)
);
#650=(
NAMED_UNIT(*)
PLANE_ANGLE_UNIT()
SI_UNIT($,.RADIAN.)
);
#651=(
NAMED_UNIT(*)
SI_UNIT($,.STERADIAN.)
SOLID_ANGLE_UNIT()
);
#652=SHAPE_DEFINITION_REPRESENTATION(#653,#654);
#653=PRODUCT_DEFINITION_SHAPE('',$,#656);
#654=SHAPE_REPRESENTATION('',(#384),#646);
#655=PRODUCT_DEFINITION_CONTEXT('part definition',#660,'design');
#656=PRODUCT_DEFINITION('M2 Lock nut','M2 Lock nut v1',#657,#655);
#657=PRODUCT_DEFINITION_FORMATION('',$,#662);
#658=PRODUCT_RELATED_PRODUCT_CATEGORY('M2 Lock nut v1','M2 Lock nut v1',
(#662));
#659=APPLICATION_PROTOCOL_DEFINITION('international standard',
'automotive_design',2009,#660);
#660=APPLICATION_CONTEXT(
'Core Data for Automotive Mechanical Design Process');
#661=PRODUCT_CONTEXT('part definition',#660,'mechanical');
#662=PRODUCT('M2 Lock nut','M2 Lock nut v1',$,(#661));
#663=PRESENTATION_STYLE_ASSIGNMENT((#665));
#664=PRESENTATION_STYLE_ASSIGNMENT((#666));
#665=SURFACE_STYLE_USAGE(.BOTH.,#667);
#666=SURFACE_STYLE_USAGE(.BOTH.,#668);
#667=SURFACE_SIDE_STYLE('',(#669));
#668=SURFACE_SIDE_STYLE('',(#670));
#669=SURFACE_STYLE_FILL_AREA(#671);
#670=SURFACE_STYLE_FILL_AREA(#672);
#671=FILL_AREA_STYLE('Steel - Satin',(#673));
#672=FILL_AREA_STYLE('Opaque(0,116,186)',(#674));
#673=FILL_AREA_STYLE_COLOUR('Steel - Satin',#675);
#674=FILL_AREA_STYLE_COLOUR('Opaque(0,116,186)',#676);
#675=COLOUR_RGB('Steel - Satin',0.627450980392157,0.627450980392157,0.627450980392157);
#676=COLOUR_RGB('Opaque(0,116,186)',0.,0.454901960784314,0.729411764705882);
ENDSEC;
END-ISO-10303-21;
