ISO-10303-21;
HEADER;
/* Generated by software containing ST-Developer
 * from STEP Tools, Inc. (www.steptools.com) 
 */

FILE_DESCRIPTION(
/* description */ (''),
/* implementation_level */ '2;1');

FILE_NAME(
/* name */ 
'H:/WebServers/home/kvantocars/www/files/step/Oil_bearing_4x8x3_v1.ste
p',
/* time_stamp */ '2022-03-24T12:43:53+04:00',
/* author */ (''),
/* organization */ (''),
/* preprocessor_version */ 'ST-DEVELOPER v18.1',
/* originating_system */ 'Autodesk Translation Framework v10.13.0.1454',

/* authorisation */ '');

FILE_SCHEMA (('AUTOMOTIVE_DESIGN { 1 0 10303 214 3 1 1 }'));
ENDSEC;

DATA;
#10=MECHANICAL_DESIGN_GEOMETRIC_PRESENTATION_REPRESENTATION('',(#13),#225);
#11=SHAPE_REPRESENTATION_RELATIONSHIP('SRR','None',#232,#12);
#12=ADVANCED_BREP_SHAPE_REPRESENTATION('',(#14),#224);
#13=STYLED_ITEM('',(#242),#14);
#14=MANIFOLD_SOLID_BREP('Bearing 4x8x3',#121);
#15=FACE_BOUND('',#32,.T.);
#16=FACE_BOUND('',#35,.T.);
#17=PLANE('',#140);
#18=PLANE('',#144);
#19=CYLINDRICAL_SURFACE('',#138,2.);
#20=CYLINDRICAL_SURFACE('',#148,4.);
#21=FACE_OUTER_BOUND('',#29,.T.);
#22=FACE_OUTER_BOUND('',#30,.T.);
#23=FACE_OUTER_BOUND('',#31,.T.);
#24=FACE_OUTER_BOUND('',#33,.T.);
#25=FACE_OUTER_BOUND('',#34,.T.);
#26=FACE_OUTER_BOUND('',#36,.T.);
#27=FACE_OUTER_BOUND('',#37,.T.);
#28=FACE_OUTER_BOUND('',#38,.T.);
#29=EDGE_LOOP('',(#81,#82,#83,#84));
#30=EDGE_LOOP('',(#85,#86,#87,#88));
#31=EDGE_LOOP('',(#89));
#32=EDGE_LOOP('',(#90));
#33=EDGE_LOOP('',(#91,#92,#93,#94));
#34=EDGE_LOOP('',(#95));
#35=EDGE_LOOP('',(#96));
#36=EDGE_LOOP('',(#97,#98,#99,#100));
#37=EDGE_LOOP('',(#101,#102,#103,#104));
#38=EDGE_LOOP('',(#105,#106,#107,#108));
#39=LINE('',#196,#45);
#40=LINE('',#201,#46);
#41=LINE('',#208,#47);
#42=LINE('',#215,#48);
#43=LINE('',#219,#49);
#44=LINE('',#221,#50);
#45=VECTOR('',#157,2.075);
#46=VECTOR('',#164,2.);
#47=VECTOR('',#173,2.075);
#48=VECTOR('',#182,3.925);
#49=VECTOR('',#187,4.);
#50=VECTOR('',#190,3.925);
#51=CIRCLE('',#136,2.);
#52=CIRCLE('',#137,2.15);
#53=CIRCLE('',#139,2.);
#54=CIRCLE('',#141,3.85);
#55=CIRCLE('',#143,2.15);
#56=CIRCLE('',#145,3.85);
#57=CIRCLE('',#147,4.);
#58=CIRCLE('',#149,4.);
#59=VERTEX_POINT('',#193);
#60=VERTEX_POINT('',#195);
#61=VERTEX_POINT('',#199);
#62=VERTEX_POINT('',#203);
#63=VERTEX_POINT('',#206);
#64=VERTEX_POINT('',#210);
#65=VERTEX_POINT('',#213);
#66=VERTEX_POINT('',#217);
#67=EDGE_CURVE('',#59,#59,#51,.T.);
#68=EDGE_CURVE('',#59,#60,#39,.T.);
#69=EDGE_CURVE('',#60,#60,#52,.T.);
#70=EDGE_CURVE('',#61,#61,#53,.T.);
#71=EDGE_CURVE('',#61,#59,#40,.T.);
#72=EDGE_CURVE('',#62,#62,#54,.T.);
#73=EDGE_CURVE('',#63,#63,#55,.T.);
#74=EDGE_CURVE('',#63,#61,#41,.T.);
#75=EDGE_CURVE('',#64,#64,#56,.T.);
#76=EDGE_CURVE('',#65,#65,#57,.T.);
#77=EDGE_CURVE('',#65,#62,#42,.T.);
#78=EDGE_CURVE('',#66,#66,#58,.T.);
#79=EDGE_CURVE('',#66,#65,#43,.T.);
#80=EDGE_CURVE('',#64,#66,#44,.T.);
#81=ORIENTED_EDGE('',*,*,#67,.T.);
#82=ORIENTED_EDGE('',*,*,#68,.T.);
#83=ORIENTED_EDGE('',*,*,#69,.T.);
#84=ORIENTED_EDGE('',*,*,#68,.F.);
#85=ORIENTED_EDGE('',*,*,#70,.F.);
#86=ORIENTED_EDGE('',*,*,#71,.T.);
#87=ORIENTED_EDGE('',*,*,#67,.F.);
#88=ORIENTED_EDGE('',*,*,#71,.F.);
#89=ORIENTED_EDGE('',*,*,#72,.F.);
#90=ORIENTED_EDGE('',*,*,#69,.F.);
#91=ORIENTED_EDGE('',*,*,#73,.T.);
#92=ORIENTED_EDGE('',*,*,#74,.T.);
#93=ORIENTED_EDGE('',*,*,#70,.T.);
#94=ORIENTED_EDGE('',*,*,#74,.F.);
#95=ORIENTED_EDGE('',*,*,#75,.F.);
#96=ORIENTED_EDGE('',*,*,#73,.F.);
#97=ORIENTED_EDGE('',*,*,#76,.T.);
#98=ORIENTED_EDGE('',*,*,#77,.T.);
#99=ORIENTED_EDGE('',*,*,#72,.T.);
#100=ORIENTED_EDGE('',*,*,#77,.F.);
#101=ORIENTED_EDGE('',*,*,#78,.F.);
#102=ORIENTED_EDGE('',*,*,#79,.T.);
#103=ORIENTED_EDGE('',*,*,#76,.F.);
#104=ORIENTED_EDGE('',*,*,#79,.F.);
#105=ORIENTED_EDGE('',*,*,#75,.T.);
#106=ORIENTED_EDGE('',*,*,#80,.T.);
#107=ORIENTED_EDGE('',*,*,#78,.T.);
#108=ORIENTED_EDGE('',*,*,#80,.F.);
#109=CONICAL_SURFACE('',#135,2.075,0.785398163397449);
#110=CONICAL_SURFACE('',#142,2.075,0.785398163397448);
#111=CONICAL_SURFACE('',#146,3.925,0.785398163397449);
#112=CONICAL_SURFACE('',#150,3.925,0.785398163397448);
#113=ADVANCED_FACE('',(#21),#109,.F.);
#114=ADVANCED_FACE('',(#22),#19,.F.);
#115=ADVANCED_FACE('',(#23,#15),#17,.F.);
#116=ADVANCED_FACE('',(#24),#110,.F.);
#117=ADVANCED_FACE('',(#25,#16),#18,.T.);
#118=ADVANCED_FACE('',(#26),#111,.T.);
#119=ADVANCED_FACE('',(#27),#20,.T.);
#120=ADVANCED_FACE('',(#28),#112,.T.);
#121=CLOSED_SHELL('',(#113,#114,#115,#116,#117,#118,#119,#120));
#122=DERIVED_UNIT_ELEMENT(#124,1.);
#123=DERIVED_UNIT_ELEMENT(#227,-3.);
#124=(
MASS_UNIT()
NAMED_UNIT(*)
SI_UNIT(.KILO.,.GRAM.)
);
#125=DERIVED_UNIT((#122,#123));
#126=MEASURE_REPRESENTATION_ITEM('density measure',
POSITIVE_RATIO_MEASURE(7850.),#125);
#127=PROPERTY_DEFINITION_REPRESENTATION(#132,#129);
#128=PROPERTY_DEFINITION_REPRESENTATION(#133,#130);
#129=REPRESENTATION('material name',(#131),#224);
#130=REPRESENTATION('density',(#126),#224);
#131=DESCRIPTIVE_REPRESENTATION_ITEM('Steel','Steel');
#132=PROPERTY_DEFINITION('material property','material name',#234);
#133=PROPERTY_DEFINITION('material property','density of part',#234);
#134=AXIS2_PLACEMENT_3D('placement',#191,#151,#152);
#135=AXIS2_PLACEMENT_3D('',#192,#153,#154);
#136=AXIS2_PLACEMENT_3D('',#194,#155,#156);
#137=AXIS2_PLACEMENT_3D('',#197,#158,#159);
#138=AXIS2_PLACEMENT_3D('',#198,#160,#161);
#139=AXIS2_PLACEMENT_3D('',#200,#162,#163);
#140=AXIS2_PLACEMENT_3D('',#202,#165,#166);
#141=AXIS2_PLACEMENT_3D('',#204,#167,#168);
#142=AXIS2_PLACEMENT_3D('',#205,#169,#170);
#143=AXIS2_PLACEMENT_3D('',#207,#171,#172);
#144=AXIS2_PLACEMENT_3D('',#209,#174,#175);
#145=AXIS2_PLACEMENT_3D('',#211,#176,#177);
#146=AXIS2_PLACEMENT_3D('',#212,#178,#179);
#147=AXIS2_PLACEMENT_3D('',#214,#180,#181);
#148=AXIS2_PLACEMENT_3D('',#216,#183,#184);
#149=AXIS2_PLACEMENT_3D('',#218,#185,#186);
#150=AXIS2_PLACEMENT_3D('',#220,#188,#189);
#151=DIRECTION('axis',(0.,0.,1.));
#152=DIRECTION('refdir',(1.,0.,0.));
#153=DIRECTION('center_axis',(0.,-1.,0.));
#154=DIRECTION('ref_axis',(1.,0.,0.));
#155=DIRECTION('center_axis',(0.,1.,0.));
#156=DIRECTION('ref_axis',(1.,0.,0.));
#157=DIRECTION('',(-0.707106781186548,-0.707106781186547,8.65956056235494E-17));
#158=DIRECTION('center_axis',(0.,-1.,0.));
#159=DIRECTION('ref_axis',(1.,0.,0.));
#160=DIRECTION('center_axis',(0.,1.,0.));
#161=DIRECTION('ref_axis',(1.,0.,0.));
#162=DIRECTION('center_axis',(0.,-1.,0.));
#163=DIRECTION('ref_axis',(1.,0.,0.));
#164=DIRECTION('',(0.,-1.,0.));
#165=DIRECTION('center_axis',(0.,1.,0.));
#166=DIRECTION('ref_axis',(1.,0.,0.));
#167=DIRECTION('center_axis',(0.,1.,0.));
#168=DIRECTION('ref_axis',(1.,0.,0.));
#169=DIRECTION('center_axis',(0.,1.,0.));
#170=DIRECTION('ref_axis',(1.,0.,0.));
#171=DIRECTION('center_axis',(0.,1.,0.));
#172=DIRECTION('ref_axis',(1.,0.,0.));
#173=DIRECTION('',(0.707106781186548,-0.707106781186548,-8.65956056235493E-17));
#174=DIRECTION('center_axis',(0.,1.,0.));
#175=DIRECTION('ref_axis',(1.,0.,0.));
#176=DIRECTION('center_axis',(0.,-1.,0.));
#177=DIRECTION('ref_axis',(1.,0.,0.));
#178=DIRECTION('center_axis',(0.,1.,0.));
#179=DIRECTION('ref_axis',(1.,0.,0.));
#180=DIRECTION('center_axis',(0.,-1.,0.));
#181=DIRECTION('ref_axis',(1.,0.,0.));
#182=DIRECTION('',(0.707106781186548,-0.707106781186547,-8.65956056235494E-17));
#183=DIRECTION('center_axis',(0.,1.,0.));
#184=DIRECTION('ref_axis',(1.,0.,0.));
#185=DIRECTION('center_axis',(0.,1.,0.));
#186=DIRECTION('ref_axis',(1.,0.,0.));
#187=DIRECTION('',(0.,-1.,0.));
#188=DIRECTION('center_axis',(0.,-1.,0.));
#189=DIRECTION('ref_axis',(1.,0.,0.));
#190=DIRECTION('',(-0.707106781186547,-0.707106781186547,8.65956056235493E-17));
#191=CARTESIAN_POINT('',(0.,0.,0.));
#192=CARTESIAN_POINT('Origin',(0.,0.075,0.));
#193=CARTESIAN_POINT('',(-2.,0.15,2.44929359829471E-16));
#194=CARTESIAN_POINT('Origin',(0.,0.15,0.));
#195=CARTESIAN_POINT('',(-2.15,0.,-2.63299061816681E-16));
#196=CARTESIAN_POINT('',(-2.075,0.075,2.54114210823076E-16));
#197=CARTESIAN_POINT('Origin',(0.,0.,0.));
#198=CARTESIAN_POINT('Origin',(0.,0.,0.));
#199=CARTESIAN_POINT('',(-2.,2.85,-2.44929359829471E-16));
#200=CARTESIAN_POINT('Origin',(0.,2.85,0.));
#201=CARTESIAN_POINT('',(-2.,0.,2.44929359829471E-16));
#202=CARTESIAN_POINT('Origin',(0.,0.,0.));
#203=CARTESIAN_POINT('',(-3.85,0.,4.71489017671731E-16));
#204=CARTESIAN_POINT('Origin',(0.,0.,0.));
#205=CARTESIAN_POINT('Origin',(0.,2.925,0.));
#206=CARTESIAN_POINT('',(-2.15,3.,2.63299061816681E-16));
#207=CARTESIAN_POINT('Origin',(0.,3.,0.));
#208=CARTESIAN_POINT('',(-2.075,2.925,2.54114210823076E-16));
#209=CARTESIAN_POINT('Origin',(0.,3.,0.));
#210=CARTESIAN_POINT('',(-3.85,3.,-4.71489017671731E-16));
#211=CARTESIAN_POINT('Origin',(0.,3.,0.));
#212=CARTESIAN_POINT('Origin',(0.,0.075,0.));
#213=CARTESIAN_POINT('',(-4.,0.15,-4.89858719658941E-16));
#214=CARTESIAN_POINT('Origin',(0.,0.15,0.));
#215=CARTESIAN_POINT('',(-3.925,0.075,4.80673868665336E-16));
#216=CARTESIAN_POINT('Origin',(0.,0.,0.));
#217=CARTESIAN_POINT('',(-4.,2.85,4.89858719658941E-16));
#218=CARTESIAN_POINT('Origin',(0.,2.85,0.));
#219=CARTESIAN_POINT('',(-4.,0.,4.89858719658941E-16));
#220=CARTESIAN_POINT('Origin',(0.,2.925,0.));
#221=CARTESIAN_POINT('',(-3.925,2.925,4.80673868665336E-16));
#222=UNCERTAINTY_MEASURE_WITH_UNIT(LENGTH_MEASURE(0.01),#226,
'DISTANCE_ACCURACY_VALUE',
'Maximum model space distance between geometric entities at asserted c
onnectivities');
#223=UNCERTAINTY_MEASURE_WITH_UNIT(LENGTH_MEASURE(0.01),#226,
'DISTANCE_ACCURACY_VALUE',
'Maximum model space distance between geometric entities at asserted c
onnectivities');
#224=(
GEOMETRIC_REPRESENTATION_CONTEXT(3)
GLOBAL_UNCERTAINTY_ASSIGNED_CONTEXT((#222))
GLOBAL_UNIT_ASSIGNED_CONTEXT((#226,#228,#229))
REPRESENTATION_CONTEXT('','3D')
);
#225=(
GEOMETRIC_REPRESENTATION_CONTEXT(3)
GLOBAL_UNCERTAINTY_ASSIGNED_CONTEXT((#223))
GLOBAL_UNIT_ASSIGNED_CONTEXT((#226,#228,#229))
REPRESENTATION_CONTEXT('','3D')
);
#226=(
LENGTH_UNIT()
NAMED_UNIT(*)
SI_UNIT(.MILLI.,.METRE.)
);
#227=(
LENGTH_UNIT()
NAMED_UNIT(*)
SI_UNIT($,.METRE.)
);
#228=(
NAMED_UNIT(*)
PLANE_ANGLE_UNIT()
SI_UNIT($,.RADIAN.)
);
#229=(
NAMED_UNIT(*)
SI_UNIT($,.STERADIAN.)
SOLID_ANGLE_UNIT()
);
#230=SHAPE_DEFINITION_REPRESENTATION(#231,#232);
#231=PRODUCT_DEFINITION_SHAPE('',$,#234);
#232=SHAPE_REPRESENTATION('',(#134),#224);
#233=PRODUCT_DEFINITION_CONTEXT('part definition',#238,'design');
#234=PRODUCT_DEFINITION('Oil bearing 4x8x3','Oil bearing 4x8x3 v1',#235,
#233);
#235=PRODUCT_DEFINITION_FORMATION('',$,#240);
#236=PRODUCT_RELATED_PRODUCT_CATEGORY('Oil bearing 4x8x3 v1',
'Oil bearing 4x8x3 v1',(#240));
#237=APPLICATION_PROTOCOL_DEFINITION('international standard',
'automotive_design',2009,#238);
#238=APPLICATION_CONTEXT(
'Core Data for Automotive Mechanical Design Process');
#239=PRODUCT_CONTEXT('part definition',#238,'mechanical');
#240=PRODUCT('Oil bearing 4x8x3','Oil bearing 4x8x3 v1',$,(#239));
#241=PRESENTATION_STYLE_ASSIGNMENT((#243));
#242=PRESENTATION_STYLE_ASSIGNMENT((#244));
#243=SURFACE_STYLE_USAGE(.BOTH.,#245);
#244=SURFACE_STYLE_USAGE(.BOTH.,#246);
#245=SURFACE_SIDE_STYLE('',(#247));
#246=SURFACE_SIDE_STYLE('',(#248));
#247=SURFACE_STYLE_FILL_AREA(#249);
#248=SURFACE_STYLE_FILL_AREA(#250);
#249=FILL_AREA_STYLE('Steel - Satin',(#251));
#250=FILL_AREA_STYLE('Copper - Raw',(#252));
#251=FILL_AREA_STYLE_COLOUR('Steel - Satin',#253);
#252=FILL_AREA_STYLE_COLOUR('Copper - Raw',#254);
#253=COLOUR_RGB('Steel - Satin',0.627450980392157,0.627450980392157,0.627450980392157);
#254=COLOUR_RGB('Copper - Raw',0.,0.,0.);
ENDSEC;
END-ISO-10303-21;
