ISO-10303-21;
HEADER;
/* Generated by software containing ST-Developer
 * from STEP Tools, Inc. (www.steptools.com) 
 */

FILE_DESCRIPTION(
/* description */ (''),
/* implementation_level */ '2;1');

FILE_NAME(
/* name */ 
'H:/WebServers/home/kvantocars/www/files/step/Screw_M2.5x8_v1.step',
/* time_stamp */ '2022-03-24T13:18:01+04:00',
/* author */ (''),
/* organization */ (''),
/* preprocessor_version */ 'ST-DEVELOPER v18.1',
/* originating_system */ 'Autodesk Translation Framework v10.13.0.1454',

/* authorisation */ '');

FILE_SCHEMA (('AUTOMOTIVE_DESIGN { 1 0 10303 214 3 1 1 }'));
ENDSEC;

DATA;
#10=MECHANICAL_DESIGN_GEOMETRIC_PRESENTATION_REPRESENTATION('',(#13),#589);
#11=SHAPE_REPRESENTATION_RELATIONSHIP('SRR','None',#596,#12);
#12=ADVANCED_BREP_SHAPE_REPRESENTATION('',(#14),#588);
#13=STYLED_ITEM('',(#605),#14);
#14=MANIFOLD_SOLID_BREP('Screw M2.5x8',#351);
#15=FACE_BOUND('',#134,.T.);
#16=FACE_BOUND('',#137,.T.);
#17=PLANE('',#371);
#18=PLANE('',#376);
#19=PLANE('',#377);
#20=PLANE('',#378);
#21=PLANE('',#379);
#22=PLANE('',#380);
#23=PLANE('',#381);
#24=PLANE('',#382);
#25=PLANE('',#383);
#26=PLANE('',#384);
#27=PLANE('',#385);
#28=PLANE('',#386);
#29=PLANE('',#387);
#30=PLANE('',#388);
#31=PLANE('',#389);
#32=PLANE('',#392);
#33=LINE('',#498,#71);
#34=LINE('',#510,#72);
#35=LINE('',#512,#73);
#36=LINE('',#514,#74);
#37=LINE('',#516,#75);
#38=LINE('',#518,#76);
#39=LINE('',#520,#77);
#40=LINE('',#522,#78);
#41=LINE('',#524,#79);
#42=LINE('',#526,#80);
#43=LINE('',#528,#81);
#44=LINE('',#530,#82);
#45=LINE('',#531,#83);
#46=LINE('',#534,#84);
#47=LINE('',#536,#85);
#48=LINE('',#537,#86);
#49=LINE('',#540,#87);
#50=LINE('',#541,#88);
#51=LINE('',#544,#89);
#52=LINE('',#545,#90);
#53=LINE('',#548,#91);
#54=LINE('',#549,#92);
#55=LINE('',#552,#93);
#56=LINE('',#553,#94);
#57=LINE('',#556,#95);
#58=LINE('',#557,#96);
#59=LINE('',#560,#97);
#60=LINE('',#561,#98);
#61=LINE('',#564,#99);
#62=LINE('',#565,#100);
#63=LINE('',#568,#101);
#64=LINE('',#569,#102);
#65=LINE('',#572,#103);
#66=LINE('',#573,#104);
#67=LINE('',#576,#105);
#68=LINE('',#577,#106);
#69=LINE('',#579,#107);
#70=LINE('',#584,#108);
#71=VECTOR('',#405,2.5);
#72=VECTOR('',#420,10.);
#73=VECTOR('',#421,10.);
#74=VECTOR('',#422,10.);
#75=VECTOR('',#423,10.);
#76=VECTOR('',#424,10.);
#77=VECTOR('',#425,10.);
#78=VECTOR('',#426,10.);
#79=VECTOR('',#427,10.);
#80=VECTOR('',#428,10.);
#81=VECTOR('',#429,10.);
#82=VECTOR('',#430,10.);
#83=VECTOR('',#431,10.);
#84=VECTOR('',#434,10.);
#85=VECTOR('',#435,10.);
#86=VECTOR('',#436,10.);
#87=VECTOR('',#439,10.);
#88=VECTOR('',#440,10.);
#89=VECTOR('',#443,10.);
#90=VECTOR('',#444,10.);
#91=VECTOR('',#447,10.);
#92=VECTOR('',#448,10.);
#93=VECTOR('',#451,10.);
#94=VECTOR('',#452,10.);
#95=VECTOR('',#455,10.);
#96=VECTOR('',#456,10.);
#97=VECTOR('',#459,10.);
#98=VECTOR('',#460,10.);
#99=VECTOR('',#463,10.);
#100=VECTOR('',#464,10.);
#101=VECTOR('',#467,10.);
#102=VECTOR('',#468,10.);
#103=VECTOR('',#471,10.);
#104=VECTOR('',#472,10.);
#105=VECTOR('',#475,10.);
#106=VECTOR('',#476,10.);
#107=VECTOR('',#479,10.);
#108=VECTOR('',#486,1.2);
#109=CYLINDRICAL_SURFACE('',#369,2.5);
#110=CYLINDRICAL_SURFACE('',#390,1.215);
#111=FACE_OUTER_BOUND('',#131,.T.);
#112=FACE_OUTER_BOUND('',#132,.T.);
#113=FACE_OUTER_BOUND('',#133,.T.);
#114=FACE_OUTER_BOUND('',#135,.T.);
#115=FACE_OUTER_BOUND('',#136,.T.);
#116=FACE_OUTER_BOUND('',#138,.T.);
#117=FACE_OUTER_BOUND('',#139,.T.);
#118=FACE_OUTER_BOUND('',#140,.T.);
#119=FACE_OUTER_BOUND('',#141,.T.);
#120=FACE_OUTER_BOUND('',#142,.T.);
#121=FACE_OUTER_BOUND('',#143,.T.);
#122=FACE_OUTER_BOUND('',#144,.T.);
#123=FACE_OUTER_BOUND('',#145,.T.);
#124=FACE_OUTER_BOUND('',#146,.T.);
#125=FACE_OUTER_BOUND('',#147,.T.);
#126=FACE_OUTER_BOUND('',#148,.T.);
#127=FACE_OUTER_BOUND('',#149,.T.);
#128=FACE_OUTER_BOUND('',#150,.T.);
#129=FACE_OUTER_BOUND('',#151,.T.);
#130=FACE_OUTER_BOUND('',#152,.T.);
#131=EDGE_LOOP('',(#237,#238,#239,#240));
#132=EDGE_LOOP('',(#241,#242,#243,#244));
#133=EDGE_LOOP('',(#245));
#134=EDGE_LOOP('',(#246));
#135=EDGE_LOOP('',(#247,#248,#249,#250));
#136=EDGE_LOOP('',(#251));
#137=EDGE_LOOP('',(#252,#253,#254,#255,#256,#257,#258,#259,#260,#261,#262,
#263));
#138=EDGE_LOOP('',(#264,#265,#266,#267));
#139=EDGE_LOOP('',(#268,#269,#270,#271));
#140=EDGE_LOOP('',(#272,#273,#274,#275));
#141=EDGE_LOOP('',(#276,#277,#278,#279));
#142=EDGE_LOOP('',(#280,#281,#282,#283));
#143=EDGE_LOOP('',(#284,#285,#286,#287));
#144=EDGE_LOOP('',(#288,#289,#290,#291));
#145=EDGE_LOOP('',(#292,#293,#294,#295));
#146=EDGE_LOOP('',(#296,#297,#298,#299));
#147=EDGE_LOOP('',(#300,#301,#302,#303));
#148=EDGE_LOOP('',(#304,#305,#306,#307));
#149=EDGE_LOOP('',(#308,#309,#310,#311));
#150=EDGE_LOOP('',(#312,#313,#314,#315,#316,#317,#318,#319,#320,#321,#322,
#323));
#151=EDGE_LOOP('',(#324,#325,#326,#327));
#152=EDGE_LOOP('',(#328));
#153=CIRCLE('',#366,2.);
#154=CIRCLE('',#367,0.5);
#155=CIRCLE('',#368,2.5);
#156=CIRCLE('',#370,2.5);
#157=CIRCLE('',#372,1.215);
#158=CIRCLE('',#374,0.5);
#159=CIRCLE('',#375,2.);
#160=CIRCLE('',#391,1.215);
#161=VERTEX_POINT('',#491);
#162=VERTEX_POINT('',#493);
#163=VERTEX_POINT('',#497);
#164=VERTEX_POINT('',#501);
#165=VERTEX_POINT('',#504);
#166=VERTEX_POINT('',#508);
#167=VERTEX_POINT('',#509);
#168=VERTEX_POINT('',#511);
#169=VERTEX_POINT('',#513);
#170=VERTEX_POINT('',#515);
#171=VERTEX_POINT('',#517);
#172=VERTEX_POINT('',#519);
#173=VERTEX_POINT('',#521);
#174=VERTEX_POINT('',#523);
#175=VERTEX_POINT('',#525);
#176=VERTEX_POINT('',#527);
#177=VERTEX_POINT('',#529);
#178=VERTEX_POINT('',#533);
#179=VERTEX_POINT('',#535);
#180=VERTEX_POINT('',#539);
#181=VERTEX_POINT('',#543);
#182=VERTEX_POINT('',#547);
#183=VERTEX_POINT('',#551);
#184=VERTEX_POINT('',#555);
#185=VERTEX_POINT('',#559);
#186=VERTEX_POINT('',#563);
#187=VERTEX_POINT('',#567);
#188=VERTEX_POINT('',#571);
#189=VERTEX_POINT('',#575);
#190=VERTEX_POINT('',#582);
#191=EDGE_CURVE('',#161,#161,#153,.T.);
#192=EDGE_CURVE('',#161,#162,#154,.T.);
#193=EDGE_CURVE('',#162,#162,#155,.T.);
#194=EDGE_CURVE('',#162,#163,#33,.T.);
#195=EDGE_CURVE('',#163,#163,#156,.T.);
#196=EDGE_CURVE('',#164,#164,#157,.F.);
#197=EDGE_CURVE('',#163,#165,#158,.T.);
#198=EDGE_CURVE('',#165,#165,#159,.T.);
#199=EDGE_CURVE('',#166,#167,#34,.T.);
#200=EDGE_CURVE('',#167,#168,#35,.T.);
#201=EDGE_CURVE('',#168,#169,#36,.T.);
#202=EDGE_CURVE('',#169,#170,#37,.T.);
#203=EDGE_CURVE('',#170,#171,#38,.T.);
#204=EDGE_CURVE('',#171,#172,#39,.T.);
#205=EDGE_CURVE('',#172,#173,#40,.T.);
#206=EDGE_CURVE('',#173,#174,#41,.T.);
#207=EDGE_CURVE('',#174,#175,#42,.T.);
#208=EDGE_CURVE('',#175,#176,#43,.T.);
#209=EDGE_CURVE('',#176,#177,#44,.T.);
#210=EDGE_CURVE('',#177,#166,#45,.T.);
#211=EDGE_CURVE('',#166,#178,#46,.T.);
#212=EDGE_CURVE('',#178,#179,#47,.T.);
#213=EDGE_CURVE('',#167,#179,#48,.T.);
#214=EDGE_CURVE('',#177,#180,#49,.T.);
#215=EDGE_CURVE('',#180,#178,#50,.T.);
#216=EDGE_CURVE('',#176,#181,#51,.T.);
#217=EDGE_CURVE('',#181,#180,#52,.T.);
#218=EDGE_CURVE('',#175,#182,#53,.T.);
#219=EDGE_CURVE('',#182,#181,#54,.T.);
#220=EDGE_CURVE('',#174,#183,#55,.T.);
#221=EDGE_CURVE('',#183,#182,#56,.T.);
#222=EDGE_CURVE('',#173,#184,#57,.T.);
#223=EDGE_CURVE('',#184,#183,#58,.T.);
#224=EDGE_CURVE('',#172,#185,#59,.T.);
#225=EDGE_CURVE('',#185,#184,#60,.T.);
#226=EDGE_CURVE('',#171,#186,#61,.T.);
#227=EDGE_CURVE('',#186,#185,#62,.T.);
#228=EDGE_CURVE('',#170,#187,#63,.T.);
#229=EDGE_CURVE('',#187,#186,#64,.T.);
#230=EDGE_CURVE('',#169,#188,#65,.T.);
#231=EDGE_CURVE('',#188,#187,#66,.T.);
#232=EDGE_CURVE('',#168,#189,#67,.T.);
#233=EDGE_CURVE('',#189,#188,#68,.T.);
#234=EDGE_CURVE('',#179,#189,#69,.T.);
#235=EDGE_CURVE('',#190,#190,#160,.F.);
#236=EDGE_CURVE('',#190,#164,#70,.T.);
#237=ORIENTED_EDGE('',*,*,#191,.T.);
#238=ORIENTED_EDGE('',*,*,#192,.T.);
#239=ORIENTED_EDGE('',*,*,#193,.T.);
#240=ORIENTED_EDGE('',*,*,#192,.F.);
#241=ORIENTED_EDGE('',*,*,#193,.F.);
#242=ORIENTED_EDGE('',*,*,#194,.T.);
#243=ORIENTED_EDGE('',*,*,#195,.F.);
#244=ORIENTED_EDGE('',*,*,#194,.F.);
#245=ORIENTED_EDGE('',*,*,#191,.F.);
#246=ORIENTED_EDGE('',*,*,#196,.F.);
#247=ORIENTED_EDGE('',*,*,#195,.T.);
#248=ORIENTED_EDGE('',*,*,#197,.T.);
#249=ORIENTED_EDGE('',*,*,#198,.T.);
#250=ORIENTED_EDGE('',*,*,#197,.F.);
#251=ORIENTED_EDGE('',*,*,#198,.F.);
#252=ORIENTED_EDGE('',*,*,#199,.T.);
#253=ORIENTED_EDGE('',*,*,#200,.T.);
#254=ORIENTED_EDGE('',*,*,#201,.T.);
#255=ORIENTED_EDGE('',*,*,#202,.T.);
#256=ORIENTED_EDGE('',*,*,#203,.T.);
#257=ORIENTED_EDGE('',*,*,#204,.T.);
#258=ORIENTED_EDGE('',*,*,#205,.T.);
#259=ORIENTED_EDGE('',*,*,#206,.T.);
#260=ORIENTED_EDGE('',*,*,#207,.T.);
#261=ORIENTED_EDGE('',*,*,#208,.T.);
#262=ORIENTED_EDGE('',*,*,#209,.T.);
#263=ORIENTED_EDGE('',*,*,#210,.T.);
#264=ORIENTED_EDGE('',*,*,#199,.F.);
#265=ORIENTED_EDGE('',*,*,#211,.T.);
#266=ORIENTED_EDGE('',*,*,#212,.T.);
#267=ORIENTED_EDGE('',*,*,#213,.F.);
#268=ORIENTED_EDGE('',*,*,#210,.F.);
#269=ORIENTED_EDGE('',*,*,#214,.T.);
#270=ORIENTED_EDGE('',*,*,#215,.T.);
#271=ORIENTED_EDGE('',*,*,#211,.F.);
#272=ORIENTED_EDGE('',*,*,#209,.F.);
#273=ORIENTED_EDGE('',*,*,#216,.T.);
#274=ORIENTED_EDGE('',*,*,#217,.T.);
#275=ORIENTED_EDGE('',*,*,#214,.F.);
#276=ORIENTED_EDGE('',*,*,#208,.F.);
#277=ORIENTED_EDGE('',*,*,#218,.T.);
#278=ORIENTED_EDGE('',*,*,#219,.T.);
#279=ORIENTED_EDGE('',*,*,#216,.F.);
#280=ORIENTED_EDGE('',*,*,#207,.F.);
#281=ORIENTED_EDGE('',*,*,#220,.T.);
#282=ORIENTED_EDGE('',*,*,#221,.T.);
#283=ORIENTED_EDGE('',*,*,#218,.F.);
#284=ORIENTED_EDGE('',*,*,#206,.F.);
#285=ORIENTED_EDGE('',*,*,#222,.T.);
#286=ORIENTED_EDGE('',*,*,#223,.T.);
#287=ORIENTED_EDGE('',*,*,#220,.F.);
#288=ORIENTED_EDGE('',*,*,#205,.F.);
#289=ORIENTED_EDGE('',*,*,#224,.T.);
#290=ORIENTED_EDGE('',*,*,#225,.T.);
#291=ORIENTED_EDGE('',*,*,#222,.F.);
#292=ORIENTED_EDGE('',*,*,#204,.F.);
#293=ORIENTED_EDGE('',*,*,#226,.T.);
#294=ORIENTED_EDGE('',*,*,#227,.T.);
#295=ORIENTED_EDGE('',*,*,#224,.F.);
#296=ORIENTED_EDGE('',*,*,#203,.F.);
#297=ORIENTED_EDGE('',*,*,#228,.T.);
#298=ORIENTED_EDGE('',*,*,#229,.T.);
#299=ORIENTED_EDGE('',*,*,#226,.F.);
#300=ORIENTED_EDGE('',*,*,#202,.F.);
#301=ORIENTED_EDGE('',*,*,#230,.T.);
#302=ORIENTED_EDGE('',*,*,#231,.T.);
#303=ORIENTED_EDGE('',*,*,#228,.F.);
#304=ORIENTED_EDGE('',*,*,#201,.F.);
#305=ORIENTED_EDGE('',*,*,#232,.T.);
#306=ORIENTED_EDGE('',*,*,#233,.T.);
#307=ORIENTED_EDGE('',*,*,#230,.F.);
#308=ORIENTED_EDGE('',*,*,#200,.F.);
#309=ORIENTED_EDGE('',*,*,#213,.T.);
#310=ORIENTED_EDGE('',*,*,#234,.T.);
#311=ORIENTED_EDGE('',*,*,#232,.F.);
#312=ORIENTED_EDGE('',*,*,#234,.F.);
#313=ORIENTED_EDGE('',*,*,#212,.F.);
#314=ORIENTED_EDGE('',*,*,#215,.F.);
#315=ORIENTED_EDGE('',*,*,#217,.F.);
#316=ORIENTED_EDGE('',*,*,#219,.F.);
#317=ORIENTED_EDGE('',*,*,#221,.F.);
#318=ORIENTED_EDGE('',*,*,#223,.F.);
#319=ORIENTED_EDGE('',*,*,#225,.F.);
#320=ORIENTED_EDGE('',*,*,#227,.F.);
#321=ORIENTED_EDGE('',*,*,#229,.F.);
#322=ORIENTED_EDGE('',*,*,#231,.F.);
#323=ORIENTED_EDGE('',*,*,#233,.F.);
#324=ORIENTED_EDGE('',*,*,#235,.F.);
#325=ORIENTED_EDGE('',*,*,#236,.T.);
#326=ORIENTED_EDGE('',*,*,#196,.T.);
#327=ORIENTED_EDGE('',*,*,#236,.F.);
#328=ORIENTED_EDGE('',*,*,#235,.T.);
#329=TOROIDAL_SURFACE('',#365,2.,0.5);
#330=TOROIDAL_SURFACE('',#373,2.,0.5);
#331=ADVANCED_FACE('',(#111),#329,.T.);
#332=ADVANCED_FACE('',(#112),#109,.T.);
#333=ADVANCED_FACE('',(#113,#15),#17,.T.);
#334=ADVANCED_FACE('',(#114),#330,.T.);
#335=ADVANCED_FACE('',(#115,#16),#18,.T.);
#336=ADVANCED_FACE('',(#116),#19,.F.);
#337=ADVANCED_FACE('',(#117),#20,.F.);
#338=ADVANCED_FACE('',(#118),#21,.F.);
#339=ADVANCED_FACE('',(#119),#22,.F.);
#340=ADVANCED_FACE('',(#120),#23,.F.);
#341=ADVANCED_FACE('',(#121),#24,.F.);
#342=ADVANCED_FACE('',(#122),#25,.F.);
#343=ADVANCED_FACE('',(#123),#26,.F.);
#344=ADVANCED_FACE('',(#124),#27,.F.);
#345=ADVANCED_FACE('',(#125),#28,.F.);
#346=ADVANCED_FACE('',(#126),#29,.F.);
#347=ADVANCED_FACE('',(#127),#30,.F.);
#348=ADVANCED_FACE('',(#128),#31,.F.);
#349=ADVANCED_FACE('',(#129),#110,.T.);
#350=ADVANCED_FACE('',(#130),#32,.T.);
#351=CLOSED_SHELL('',(#331,#332,#333,#334,#335,#336,#337,#338,#339,#340,
#341,#342,#343,#344,#345,#346,#347,#348,#349,#350));
#352=DERIVED_UNIT_ELEMENT(#354,1.);
#353=DERIVED_UNIT_ELEMENT(#591,-3.);
#354=(
MASS_UNIT()
NAMED_UNIT(*)
SI_UNIT(.KILO.,.GRAM.)
);
#355=DERIVED_UNIT((#352,#353));
#356=MEASURE_REPRESENTATION_ITEM('density measure',
POSITIVE_RATIO_MEASURE(7850.),#355);
#357=PROPERTY_DEFINITION_REPRESENTATION(#362,#359);
#358=PROPERTY_DEFINITION_REPRESENTATION(#363,#360);
#359=REPRESENTATION('material name',(#361),#588);
#360=REPRESENTATION('density',(#356),#588);
#361=DESCRIPTIVE_REPRESENTATION_ITEM('Steel','Steel');
#362=PROPERTY_DEFINITION('material property','material name',#598);
#363=PROPERTY_DEFINITION('material property','density of part',#598);
#364=AXIS2_PLACEMENT_3D('placement',#489,#393,#394);
#365=AXIS2_PLACEMENT_3D('',#490,#395,#396);
#366=AXIS2_PLACEMENT_3D('',#492,#397,#398);
#367=AXIS2_PLACEMENT_3D('',#494,#399,#400);
#368=AXIS2_PLACEMENT_3D('',#495,#401,#402);
#369=AXIS2_PLACEMENT_3D('',#496,#403,#404);
#370=AXIS2_PLACEMENT_3D('',#499,#406,#407);
#371=AXIS2_PLACEMENT_3D('',#500,#408,#409);
#372=AXIS2_PLACEMENT_3D('',#502,#410,#411);
#373=AXIS2_PLACEMENT_3D('',#503,#412,#413);
#374=AXIS2_PLACEMENT_3D('',#505,#414,#415);
#375=AXIS2_PLACEMENT_3D('',#506,#416,#417);
#376=AXIS2_PLACEMENT_3D('',#507,#418,#419);
#377=AXIS2_PLACEMENT_3D('',#532,#432,#433);
#378=AXIS2_PLACEMENT_3D('',#538,#437,#438);
#379=AXIS2_PLACEMENT_3D('',#542,#441,#442);
#380=AXIS2_PLACEMENT_3D('',#546,#445,#446);
#381=AXIS2_PLACEMENT_3D('',#550,#449,#450);
#382=AXIS2_PLACEMENT_3D('',#554,#453,#454);
#383=AXIS2_PLACEMENT_3D('',#558,#457,#458);
#384=AXIS2_PLACEMENT_3D('',#562,#461,#462);
#385=AXIS2_PLACEMENT_3D('',#566,#465,#466);
#386=AXIS2_PLACEMENT_3D('',#570,#469,#470);
#387=AXIS2_PLACEMENT_3D('',#574,#473,#474);
#388=AXIS2_PLACEMENT_3D('',#578,#477,#478);
#389=AXIS2_PLACEMENT_3D('',#580,#480,#481);
#390=AXIS2_PLACEMENT_3D('',#581,#482,#483);
#391=AXIS2_PLACEMENT_3D('',#583,#484,#485);
#392=AXIS2_PLACEMENT_3D('',#585,#487,#488);
#393=DIRECTION('axis',(0.,0.,1.));
#394=DIRECTION('refdir',(1.,0.,0.));
#395=DIRECTION('center_axis',(0.,0.,1.));
#396=DIRECTION('ref_axis',(1.,0.,0.));
#397=DIRECTION('center_axis',(0.,0.,-1.));
#398=DIRECTION('ref_axis',(-1.,1.22464679914735E-16,0.));
#399=DIRECTION('center_axis',(1.22464679914735E-16,-1.,0.));
#400=DIRECTION('ref_axis',(-1.,-1.22464679914735E-16,0.));
#401=DIRECTION('center_axis',(0.,0.,1.));
#402=DIRECTION('ref_axis',(-1.,1.22464679914735E-16,0.));
#403=DIRECTION('center_axis',(0.,0.,1.));
#404=DIRECTION('ref_axis',(1.,0.,0.));
#405=DIRECTION('',(0.,0.,-1.));
#406=DIRECTION('center_axis',(0.,0.,-1.));
#407=DIRECTION('ref_axis',(-1.,1.22464679914735E-16,0.));
#408=DIRECTION('center_axis',(0.,0.,1.));
#409=DIRECTION('ref_axis',(1.,0.,0.));
#410=DIRECTION('center_axis',(0.,0.,-1.));
#411=DIRECTION('ref_axis',(1.,0.,0.));
#412=DIRECTION('center_axis',(0.,0.,1.));
#413=DIRECTION('ref_axis',(1.,0.,0.));
#414=DIRECTION('center_axis',(1.22464679914735E-16,-1.,0.));
#415=DIRECTION('ref_axis',(-1.,-1.22464679914735E-16,0.));
#416=DIRECTION('center_axis',(0.,0.,1.));
#417=DIRECTION('ref_axis',(-1.,1.22464679914735E-16,0.));
#418=DIRECTION('center_axis',(0.,0.,-1.));
#419=DIRECTION('ref_axis',(-1.,0.,0.));
#420=DIRECTION('',(1.,0.,0.));
#421=DIRECTION('',(0.,-1.,0.));
#422=DIRECTION('',(1.,0.,0.));
#423=DIRECTION('',(0.,1.,0.));
#424=DIRECTION('',(1.,0.,0.));
#425=DIRECTION('',(0.,1.,0.));
#426=DIRECTION('',(-1.,0.,0.));
#427=DIRECTION('',(0.,1.,0.));
#428=DIRECTION('',(-1.,0.,0.));
#429=DIRECTION('',(0.,-1.,0.));
#430=DIRECTION('',(-1.,0.,0.));
#431=DIRECTION('',(0.,-1.,0.));
#432=DIRECTION('center_axis',(0.,-1.,0.));
#433=DIRECTION('ref_axis',(1.,0.,0.));
#434=DIRECTION('',(0.,0.,1.));
#435=DIRECTION('',(1.,0.,0.));
#436=DIRECTION('',(0.,0.,1.));
#437=DIRECTION('center_axis',(-1.,0.,0.));
#438=DIRECTION('ref_axis',(0.,-1.,0.));
#439=DIRECTION('',(0.,0.,1.));
#440=DIRECTION('',(0.,-1.,0.));
#441=DIRECTION('center_axis',(0.,1.,0.));
#442=DIRECTION('ref_axis',(-1.,0.,0.));
#443=DIRECTION('',(0.,0.,1.));
#444=DIRECTION('',(-1.,0.,0.));
#445=DIRECTION('center_axis',(-1.,0.,0.));
#446=DIRECTION('ref_axis',(0.,-1.,0.));
#447=DIRECTION('',(0.,0.,1.));
#448=DIRECTION('',(0.,-1.,0.));
#449=DIRECTION('center_axis',(0.,1.,0.));
#450=DIRECTION('ref_axis',(-1.,0.,0.));
#451=DIRECTION('',(0.,0.,1.));
#452=DIRECTION('',(-1.,0.,0.));
#453=DIRECTION('center_axis',(1.,0.,0.));
#454=DIRECTION('ref_axis',(0.,1.,0.));
#455=DIRECTION('',(0.,0.,1.));
#456=DIRECTION('',(0.,1.,0.));
#457=DIRECTION('center_axis',(0.,1.,0.));
#458=DIRECTION('ref_axis',(-1.,0.,0.));
#459=DIRECTION('',(0.,0.,1.));
#460=DIRECTION('',(-1.,0.,0.));
#461=DIRECTION('center_axis',(1.,0.,0.));
#462=DIRECTION('ref_axis',(0.,1.,0.));
#463=DIRECTION('',(0.,0.,1.));
#464=DIRECTION('',(0.,1.,0.));
#465=DIRECTION('center_axis',(0.,-1.,0.));
#466=DIRECTION('ref_axis',(1.,0.,0.));
#467=DIRECTION('',(0.,0.,1.));
#468=DIRECTION('',(1.,0.,0.));
#469=DIRECTION('center_axis',(1.,0.,0.));
#470=DIRECTION('ref_axis',(0.,1.,0.));
#471=DIRECTION('',(0.,0.,1.));
#472=DIRECTION('',(0.,1.,0.));
#473=DIRECTION('center_axis',(0.,-1.,0.));
#474=DIRECTION('ref_axis',(1.,0.,0.));
#475=DIRECTION('',(0.,0.,1.));
#476=DIRECTION('',(1.,0.,0.));
#477=DIRECTION('center_axis',(-1.,0.,0.));
#478=DIRECTION('ref_axis',(0.,-1.,0.));
#479=DIRECTION('',(0.,-1.,0.));
#480=DIRECTION('center_axis',(0.,0.,1.));
#481=DIRECTION('ref_axis',(1.,0.,0.));
#482=DIRECTION('center_axis',(0.,0.,1.));
#483=DIRECTION('ref_axis',(1.,0.,0.));
#484=DIRECTION('center_axis',(0.,0.,-1.));
#485=DIRECTION('ref_axis',(1.,0.,0.));
#486=DIRECTION('',(0.,0.,-1.));
#487=DIRECTION('center_axis',(0.,0.,1.));
#488=DIRECTION('ref_axis',(1.,0.,0.));
#489=CARTESIAN_POINT('',(0.,0.,0.));
#490=CARTESIAN_POINT('Origin',(0.,0.,1.5));
#491=CARTESIAN_POINT('',(-2.,-2.44929359829471E-16,2.));
#492=CARTESIAN_POINT('Origin',(0.,0.,2.));
#493=CARTESIAN_POINT('',(-2.5,-3.06161699786838E-16,1.5));
#494=CARTESIAN_POINT('Origin',(-2.,-2.44929359829471E-16,1.5));
#495=CARTESIAN_POINT('Origin',(0.,0.,1.5));
#496=CARTESIAN_POINT('Origin',(0.,0.,1.));
#497=CARTESIAN_POINT('',(-2.5,-3.06161699786838E-16,0.5));
#498=CARTESIAN_POINT('',(-2.5,-3.06161699786838E-16,1.));
#499=CARTESIAN_POINT('Origin',(0.,0.,0.5));
#500=CARTESIAN_POINT('Origin',(1.2,0.,2.));
#501=CARTESIAN_POINT('',(-1.215,1.48794586096403E-16,2.));
#502=CARTESIAN_POINT('Origin',(0.,0.,2.));
#503=CARTESIAN_POINT('Origin',(0.,0.,0.5));
#504=CARTESIAN_POINT('',(-2.,-2.44929359829471E-16,0.));
#505=CARTESIAN_POINT('Origin',(-2.,-2.44929359829471E-16,0.5));
#506=CARTESIAN_POINT('Origin',(0.,0.,0.));
#507=CARTESIAN_POINT('Origin',(2.5,0.,0.));
#508=CARTESIAN_POINT('',(-1.5,-0.5,0.));
#509=CARTESIAN_POINT('',(-0.5,-0.5,0.));
#510=CARTESIAN_POINT('',(0.5,-0.5,0.));
#511=CARTESIAN_POINT('',(-0.5,-1.5,0.));
#512=CARTESIAN_POINT('',(-0.5,-0.25,0.));
#513=CARTESIAN_POINT('',(0.5,-1.5,0.));
#514=CARTESIAN_POINT('',(1.,-1.5,0.));
#515=CARTESIAN_POINT('',(0.5,-0.5,0.));
#516=CARTESIAN_POINT('',(0.5,-0.75,0.));
#517=CARTESIAN_POINT('',(1.5,-0.5,0.));
#518=CARTESIAN_POINT('',(1.5,-0.5,0.));
#519=CARTESIAN_POINT('',(1.5,0.5,0.));
#520=CARTESIAN_POINT('',(1.5,-0.25,0.));
#521=CARTESIAN_POINT('',(0.5,0.5,0.));
#522=CARTESIAN_POINT('',(2.,0.5,0.));
#523=CARTESIAN_POINT('',(0.5,1.5,0.));
#524=CARTESIAN_POINT('',(0.5,0.25,0.));
#525=CARTESIAN_POINT('',(-0.5,1.5,0.));
#526=CARTESIAN_POINT('',(1.5,1.5,0.));
#527=CARTESIAN_POINT('',(-0.5,0.5,0.));
#528=CARTESIAN_POINT('',(-0.5,0.75,0.));
#529=CARTESIAN_POINT('',(-1.5,0.5,0.));
#530=CARTESIAN_POINT('',(1.,0.5,0.));
#531=CARTESIAN_POINT('',(-1.5,0.25,0.));
#532=CARTESIAN_POINT('Origin',(-1.5,-0.5,0.));
#533=CARTESIAN_POINT('',(-1.5,-0.5,1.));
#534=CARTESIAN_POINT('',(-1.5,-0.5,0.));
#535=CARTESIAN_POINT('',(-0.5,-0.5,1.));
#536=CARTESIAN_POINT('',(1.5,-0.5,1.));
#537=CARTESIAN_POINT('',(-0.5,-0.5,0.));
#538=CARTESIAN_POINT('Origin',(-1.5,0.5,0.));
#539=CARTESIAN_POINT('',(-1.5,0.5,1.));
#540=CARTESIAN_POINT('',(-1.5,0.5,0.));
#541=CARTESIAN_POINT('',(-1.5,-0.5,1.));
#542=CARTESIAN_POINT('Origin',(-0.5,0.5,0.));
#543=CARTESIAN_POINT('',(-0.5,0.5,1.));
#544=CARTESIAN_POINT('',(-0.5,0.5,0.));
#545=CARTESIAN_POINT('',(-1.5,0.5,1.));
#546=CARTESIAN_POINT('Origin',(-0.5,1.5,0.));
#547=CARTESIAN_POINT('',(-0.5,1.5,1.));
#548=CARTESIAN_POINT('',(-0.5,1.5,0.));
#549=CARTESIAN_POINT('',(-0.5,1.5,1.));
#550=CARTESIAN_POINT('Origin',(0.5,1.5,0.));
#551=CARTESIAN_POINT('',(0.5,1.5,1.));
#552=CARTESIAN_POINT('',(0.5,1.5,0.));
#553=CARTESIAN_POINT('',(0.5,1.5,1.));
#554=CARTESIAN_POINT('Origin',(0.5,0.5,0.));
#555=CARTESIAN_POINT('',(0.5,0.5,1.));
#556=CARTESIAN_POINT('',(0.5,0.5,0.));
#557=CARTESIAN_POINT('',(0.5,-1.5,1.));
#558=CARTESIAN_POINT('Origin',(1.5,0.5,0.));
#559=CARTESIAN_POINT('',(1.5,0.5,1.));
#560=CARTESIAN_POINT('',(1.5,0.5,0.));
#561=CARTESIAN_POINT('',(-1.5,0.5,1.));
#562=CARTESIAN_POINT('Origin',(1.5,-0.5,0.));
#563=CARTESIAN_POINT('',(1.5,-0.5,1.));
#564=CARTESIAN_POINT('',(1.5,-0.5,0.));
#565=CARTESIAN_POINT('',(1.5,0.5,1.));
#566=CARTESIAN_POINT('Origin',(0.5,-0.5,0.));
#567=CARTESIAN_POINT('',(0.5,-0.5,1.));
#568=CARTESIAN_POINT('',(0.5,-0.5,0.));
#569=CARTESIAN_POINT('',(1.5,-0.5,1.));
#570=CARTESIAN_POINT('Origin',(0.5,-1.5,0.));
#571=CARTESIAN_POINT('',(0.5,-1.5,1.));
#572=CARTESIAN_POINT('',(0.5,-1.5,0.));
#573=CARTESIAN_POINT('',(0.5,-1.5,1.));
#574=CARTESIAN_POINT('Origin',(-0.5,-1.5,0.));
#575=CARTESIAN_POINT('',(-0.5,-1.5,1.));
#576=CARTESIAN_POINT('',(-0.5,-1.5,0.));
#577=CARTESIAN_POINT('',(-0.5,-1.5,1.));
#578=CARTESIAN_POINT('Origin',(-0.5,-0.5,0.));
#579=CARTESIAN_POINT('',(-0.5,1.5,1.));
#580=CARTESIAN_POINT('Origin',(0.,0.,1.));
#581=CARTESIAN_POINT('Origin',(0.,0.,6.));
#582=CARTESIAN_POINT('',(-1.215,1.48794586096403E-16,10.));
#583=CARTESIAN_POINT('Origin',(0.,0.,10.));
#584=CARTESIAN_POINT('',(-1.215,-1.48794586096403E-16,6.));
#585=CARTESIAN_POINT('Origin',(0.,0.,10.));
#586=UNCERTAINTY_MEASURE_WITH_UNIT(LENGTH_MEASURE(0.01),#590,
'DISTANCE_ACCURACY_VALUE',
'Maximum model space distance between geometric entities at asserted c
onnectivities');
#587=UNCERTAINTY_MEASURE_WITH_UNIT(LENGTH_MEASURE(0.01),#590,
'DISTANCE_ACCURACY_VALUE',
'Maximum model space distance between geometric entities at asserted c
onnectivities');
#588=(
GEOMETRIC_REPRESENTATION_CONTEXT(3)
GLOBAL_UNCERTAINTY_ASSIGNED_CONTEXT((#586))
GLOBAL_UNIT_ASSIGNED_CONTEXT((#590,#592,#593))
REPRESENTATION_CONTEXT('','3D')
);
#589=(
GEOMETRIC_REPRESENTATION_CONTEXT(3)
GLOBAL_UNCERTAINTY_ASSIGNED_CONTEXT((#587))
GLOBAL_UNIT_ASSIGNED_CONTEXT((#590,#592,#593))
REPRESENTATION_CONTEXT('','3D')
);
#590=(
LENGTH_UNIT()
NAMED_UNIT(*)
SI_UNIT(.MILLI.,.METRE.)
);
#591=(
LENGTH_UNIT()
NAMED_UNIT(*)
SI_UNIT($,.METRE.)
);
#592=(
NAMED_UNIT(*)
PLANE_ANGLE_UNIT()
SI_UNIT($,.RADIAN.)
);
#593=(
NAMED_UNIT(*)
SI_UNIT($,.STERADIAN.)
SOLID_ANGLE_UNIT()
);
#594=SHAPE_DEFINITION_REPRESENTATION(#595,#596);
#595=PRODUCT_DEFINITION_SHAPE('',$,#598);
#596=SHAPE_REPRESENTATION('',(#364),#588);
#597=PRODUCT_DEFINITION_CONTEXT('part definition',#602,'design');
#598=PRODUCT_DEFINITION('Screw M2.5x8','Screw M2.5x8 v1',#599,#597);
#599=PRODUCT_DEFINITION_FORMATION('',$,#604);
#600=PRODUCT_RELATED_PRODUCT_CATEGORY('Screw M2.5x8 v1',
'Screw M2.5x8 v1',(#604));
#601=APPLICATION_PROTOCOL_DEFINITION('international standard',
'automotive_design',2009,#602);
#602=APPLICATION_CONTEXT(
'Core Data for Automotive Mechanical Design Process');
#603=PRODUCT_CONTEXT('part definition',#602,'mechanical');
#604=PRODUCT('Screw M2.5x8','Screw M2.5x8 v1',$,(#603));
#605=PRESENTATION_STYLE_ASSIGNMENT((#606));
#606=SURFACE_STYLE_USAGE(.BOTH.,#607);
#607=SURFACE_SIDE_STYLE('',(#608));
#608=SURFACE_STYLE_FILL_AREA(#609);
#609=FILL_AREA_STYLE('Steel - Satin',(#610));
#610=FILL_AREA_STYLE_COLOUR('Steel - Satin',#611);
#611=COLOUR_RGB('Steel - Satin',0.627450980392157,0.627450980392157,0.627450980392157);
ENDSEC;
END-ISO-10303-21;
