ISO-10303-21;
HEADER;
/* Generated by software containing ST-Developer
 * from STEP Tools, Inc. (www.steptools.com) 
 */

FILE_DESCRIPTION(
/* description */ (''),
/* implementation_level */ '2;1');

FILE_NAME(
/* name */ 
'H:/WebServers/home/kvantocars/www/files/step/Threaded_pin_2x30_v1.ste
p',
/* time_stamp */ '2022-03-24T12:41:40+04:00',
/* author */ (''),
/* organization */ (''),
/* preprocessor_version */ 'ST-DEVELOPER v18.1',
/* originating_system */ 'Autodesk Translation Framework v10.13.0.1454',

/* authorisation */ '');

FILE_SCHEMA (('AUTOMOTIVE_DESIGN { 1 0 10303 214 3 1 1 }'));
ENDSEC;

DATA;
#10=MECHANICAL_DESIGN_GEOMETRIC_PRESENTATION_REPRESENTATION('',(#13),#562);
#11=SHAPE_REPRESENTATION_RELATIONSHIP('SRR','None',#569,#12);
#12=ADVANCED_BREP_SHAPE_REPRESENTATION('',(#14),#561);
#13=STYLED_ITEM('',(#578),#14);
#14=MANIFOLD_SOLID_BREP('Body1',#339);
#15=CONICAL_SURFACE('',#373,1.3375,0.42285392613294);
#16=CYLINDRICAL_SURFACE('',#369,1.);
#17=CYLINDRICAL_SURFACE('',#374,0.96675);
#18=FACE_BOUND('',#58,.T.);
#19=FACE_BOUND('',#61,.T.);
#20=CIRCLE('',#367,1.);
#21=CIRCLE('',#368,0.96675);
#22=CIRCLE('',#370,1.);
#23=CIRCLE('',#372,1.675);
#24=CIRCLE('',#375,0.96675);
#25=FACE_OUTER_BOUND('',#44,.T.);
#26=FACE_OUTER_BOUND('',#45,.T.);
#27=FACE_OUTER_BOUND('',#46,.T.);
#28=FACE_OUTER_BOUND('',#47,.T.);
#29=FACE_OUTER_BOUND('',#48,.T.);
#30=FACE_OUTER_BOUND('',#49,.T.);
#31=FACE_OUTER_BOUND('',#50,.T.);
#32=FACE_OUTER_BOUND('',#51,.T.);
#33=FACE_OUTER_BOUND('',#52,.T.);
#34=FACE_OUTER_BOUND('',#53,.T.);
#35=FACE_OUTER_BOUND('',#54,.T.);
#36=FACE_OUTER_BOUND('',#55,.T.);
#37=FACE_OUTER_BOUND('',#56,.T.);
#38=FACE_OUTER_BOUND('',#57,.T.);
#39=FACE_OUTER_BOUND('',#59,.T.);
#40=FACE_OUTER_BOUND('',#60,.T.);
#41=FACE_OUTER_BOUND('',#62,.T.);
#42=FACE_OUTER_BOUND('',#63,.T.);
#43=FACE_OUTER_BOUND('',#64,.T.);
#44=EDGE_LOOP('',(#216,#217,#218,#219));
#45=EDGE_LOOP('',(#220,#221,#222,#223));
#46=EDGE_LOOP('',(#224,#225,#226,#227));
#47=EDGE_LOOP('',(#228,#229,#230,#231));
#48=EDGE_LOOP('',(#232,#233,#234,#235));
#49=EDGE_LOOP('',(#236,#237,#238,#239));
#50=EDGE_LOOP('',(#240,#241,#242,#243));
#51=EDGE_LOOP('',(#244,#245,#246,#247));
#52=EDGE_LOOP('',(#248,#249,#250,#251));
#53=EDGE_LOOP('',(#252,#253,#254,#255));
#54=EDGE_LOOP('',(#256,#257,#258,#259));
#55=EDGE_LOOP('',(#260,#261,#262,#263));
#56=EDGE_LOOP('',(#264,#265,#266,#267,#268,#269,#270,#271,#272,#273,#274,
#275));
#57=EDGE_LOOP('',(#276));
#58=EDGE_LOOP('',(#277));
#59=EDGE_LOOP('',(#278,#279,#280,#281));
#60=EDGE_LOOP('',(#282));
#61=EDGE_LOOP('',(#283,#284,#285,#286,#287,#288,#289,#290,#291,#292,#293,
#294));
#62=EDGE_LOOP('',(#295,#296,#297,#298));
#63=EDGE_LOOP('',(#299,#300,#301,#302));
#64=EDGE_LOOP('',(#303));
#65=LINE('',#470,#104);
#66=LINE('',#472,#105);
#67=LINE('',#474,#106);
#68=LINE('',#475,#107);
#69=LINE('',#478,#108);
#70=LINE('',#480,#109);
#71=LINE('',#481,#110);
#72=LINE('',#484,#111);
#73=LINE('',#486,#112);
#74=LINE('',#487,#113);
#75=LINE('',#490,#114);
#76=LINE('',#492,#115);
#77=LINE('',#493,#116);
#78=LINE('',#496,#117);
#79=LINE('',#498,#118);
#80=LINE('',#499,#119);
#81=LINE('',#502,#120);
#82=LINE('',#504,#121);
#83=LINE('',#505,#122);
#84=LINE('',#508,#123);
#85=LINE('',#510,#124);
#86=LINE('',#511,#125);
#87=LINE('',#514,#126);
#88=LINE('',#516,#127);
#89=LINE('',#517,#128);
#90=LINE('',#520,#129);
#91=LINE('',#522,#130);
#92=LINE('',#523,#131);
#93=LINE('',#526,#132);
#94=LINE('',#528,#133);
#95=LINE('',#529,#134);
#96=LINE('',#532,#135);
#97=LINE('',#534,#136);
#98=LINE('',#535,#137);
#99=LINE('',#537,#138);
#100=LINE('',#538,#139);
#101=LINE('',#547,#140);
#102=LINE('',#553,#141);
#103=LINE('',#557,#142);
#104=VECTOR('',#381,10.);
#105=VECTOR('',#382,10.);
#106=VECTOR('',#383,10.);
#107=VECTOR('',#384,10.);
#108=VECTOR('',#387,10.);
#109=VECTOR('',#388,10.);
#110=VECTOR('',#389,10.);
#111=VECTOR('',#392,10.);
#112=VECTOR('',#393,10.);
#113=VECTOR('',#394,10.);
#114=VECTOR('',#397,10.);
#115=VECTOR('',#398,10.);
#116=VECTOR('',#399,10.);
#117=VECTOR('',#402,10.);
#118=VECTOR('',#403,10.);
#119=VECTOR('',#404,10.);
#120=VECTOR('',#407,10.);
#121=VECTOR('',#408,10.);
#122=VECTOR('',#409,10.);
#123=VECTOR('',#412,10.);
#124=VECTOR('',#413,10.);
#125=VECTOR('',#414,10.);
#126=VECTOR('',#417,10.);
#127=VECTOR('',#418,10.);
#128=VECTOR('',#419,10.);
#129=VECTOR('',#422,10.);
#130=VECTOR('',#423,10.);
#131=VECTOR('',#424,10.);
#132=VECTOR('',#427,10.);
#133=VECTOR('',#428,10.);
#134=VECTOR('',#429,10.);
#135=VECTOR('',#432,10.);
#136=VECTOR('',#433,10.);
#137=VECTOR('',#434,10.);
#138=VECTOR('',#437,10.);
#139=VECTOR('',#438,10.);
#140=VECTOR('',#449,1.);
#141=VECTOR('',#458,1.3375);
#142=VECTOR('',#463,1.);
#143=VERTEX_POINT('',#468);
#144=VERTEX_POINT('',#469);
#145=VERTEX_POINT('',#471);
#146=VERTEX_POINT('',#473);
#147=VERTEX_POINT('',#477);
#148=VERTEX_POINT('',#479);
#149=VERTEX_POINT('',#483);
#150=VERTEX_POINT('',#485);
#151=VERTEX_POINT('',#489);
#152=VERTEX_POINT('',#491);
#153=VERTEX_POINT('',#495);
#154=VERTEX_POINT('',#497);
#155=VERTEX_POINT('',#501);
#156=VERTEX_POINT('',#503);
#157=VERTEX_POINT('',#507);
#158=VERTEX_POINT('',#509);
#159=VERTEX_POINT('',#513);
#160=VERTEX_POINT('',#515);
#161=VERTEX_POINT('',#519);
#162=VERTEX_POINT('',#521);
#163=VERTEX_POINT('',#525);
#164=VERTEX_POINT('',#527);
#165=VERTEX_POINT('',#531);
#166=VERTEX_POINT('',#533);
#167=VERTEX_POINT('',#541);
#168=VERTEX_POINT('',#543);
#169=VERTEX_POINT('',#546);
#170=VERTEX_POINT('',#550);
#171=VERTEX_POINT('',#555);
#172=EDGE_CURVE('',#143,#144,#65,.T.);
#173=EDGE_CURVE('',#145,#143,#66,.T.);
#174=EDGE_CURVE('',#146,#145,#67,.T.);
#175=EDGE_CURVE('',#146,#144,#68,.T.);
#176=EDGE_CURVE('',#144,#147,#69,.T.);
#177=EDGE_CURVE('',#148,#146,#70,.T.);
#178=EDGE_CURVE('',#148,#147,#71,.T.);
#179=EDGE_CURVE('',#147,#149,#72,.T.);
#180=EDGE_CURVE('',#150,#148,#73,.T.);
#181=EDGE_CURVE('',#150,#149,#74,.T.);
#182=EDGE_CURVE('',#149,#151,#75,.T.);
#183=EDGE_CURVE('',#152,#150,#76,.T.);
#184=EDGE_CURVE('',#152,#151,#77,.T.);
#185=EDGE_CURVE('',#151,#153,#78,.T.);
#186=EDGE_CURVE('',#154,#152,#79,.T.);
#187=EDGE_CURVE('',#154,#153,#80,.T.);
#188=EDGE_CURVE('',#153,#155,#81,.T.);
#189=EDGE_CURVE('',#156,#154,#82,.T.);
#190=EDGE_CURVE('',#156,#155,#83,.T.);
#191=EDGE_CURVE('',#155,#157,#84,.T.);
#192=EDGE_CURVE('',#158,#156,#85,.T.);
#193=EDGE_CURVE('',#158,#157,#86,.T.);
#194=EDGE_CURVE('',#157,#159,#87,.T.);
#195=EDGE_CURVE('',#160,#158,#88,.T.);
#196=EDGE_CURVE('',#160,#159,#89,.T.);
#197=EDGE_CURVE('',#159,#161,#90,.T.);
#198=EDGE_CURVE('',#162,#160,#91,.T.);
#199=EDGE_CURVE('',#162,#161,#92,.T.);
#200=EDGE_CURVE('',#161,#163,#93,.T.);
#201=EDGE_CURVE('',#164,#162,#94,.T.);
#202=EDGE_CURVE('',#164,#163,#95,.T.);
#203=EDGE_CURVE('',#163,#165,#96,.T.);
#204=EDGE_CURVE('',#166,#164,#97,.T.);
#205=EDGE_CURVE('',#166,#165,#98,.T.);
#206=EDGE_CURVE('',#165,#143,#99,.T.);
#207=EDGE_CURVE('',#145,#166,#100,.T.);
#208=EDGE_CURVE('',#167,#167,#20,.T.);
#209=EDGE_CURVE('',#168,#168,#21,.T.);
#210=EDGE_CURVE('',#167,#169,#101,.T.);
#211=EDGE_CURVE('',#169,#169,#22,.T.);
#212=EDGE_CURVE('',#170,#170,#23,.T.);
#213=EDGE_CURVE('',#169,#170,#102,.T.);
#214=EDGE_CURVE('',#171,#171,#24,.F.);
#215=EDGE_CURVE('',#171,#168,#103,.T.);
#216=ORIENTED_EDGE('',*,*,#172,.F.);
#217=ORIENTED_EDGE('',*,*,#173,.F.);
#218=ORIENTED_EDGE('',*,*,#174,.F.);
#219=ORIENTED_EDGE('',*,*,#175,.T.);
#220=ORIENTED_EDGE('',*,*,#176,.F.);
#221=ORIENTED_EDGE('',*,*,#175,.F.);
#222=ORIENTED_EDGE('',*,*,#177,.F.);
#223=ORIENTED_EDGE('',*,*,#178,.T.);
#224=ORIENTED_EDGE('',*,*,#179,.F.);
#225=ORIENTED_EDGE('',*,*,#178,.F.);
#226=ORIENTED_EDGE('',*,*,#180,.F.);
#227=ORIENTED_EDGE('',*,*,#181,.T.);
#228=ORIENTED_EDGE('',*,*,#182,.F.);
#229=ORIENTED_EDGE('',*,*,#181,.F.);
#230=ORIENTED_EDGE('',*,*,#183,.F.);
#231=ORIENTED_EDGE('',*,*,#184,.T.);
#232=ORIENTED_EDGE('',*,*,#185,.F.);
#233=ORIENTED_EDGE('',*,*,#184,.F.);
#234=ORIENTED_EDGE('',*,*,#186,.F.);
#235=ORIENTED_EDGE('',*,*,#187,.T.);
#236=ORIENTED_EDGE('',*,*,#188,.F.);
#237=ORIENTED_EDGE('',*,*,#187,.F.);
#238=ORIENTED_EDGE('',*,*,#189,.F.);
#239=ORIENTED_EDGE('',*,*,#190,.T.);
#240=ORIENTED_EDGE('',*,*,#191,.F.);
#241=ORIENTED_EDGE('',*,*,#190,.F.);
#242=ORIENTED_EDGE('',*,*,#192,.F.);
#243=ORIENTED_EDGE('',*,*,#193,.T.);
#244=ORIENTED_EDGE('',*,*,#194,.F.);
#245=ORIENTED_EDGE('',*,*,#193,.F.);
#246=ORIENTED_EDGE('',*,*,#195,.F.);
#247=ORIENTED_EDGE('',*,*,#196,.T.);
#248=ORIENTED_EDGE('',*,*,#197,.F.);
#249=ORIENTED_EDGE('',*,*,#196,.F.);
#250=ORIENTED_EDGE('',*,*,#198,.F.);
#251=ORIENTED_EDGE('',*,*,#199,.T.);
#252=ORIENTED_EDGE('',*,*,#200,.F.);
#253=ORIENTED_EDGE('',*,*,#199,.F.);
#254=ORIENTED_EDGE('',*,*,#201,.F.);
#255=ORIENTED_EDGE('',*,*,#202,.T.);
#256=ORIENTED_EDGE('',*,*,#203,.F.);
#257=ORIENTED_EDGE('',*,*,#202,.F.);
#258=ORIENTED_EDGE('',*,*,#204,.F.);
#259=ORIENTED_EDGE('',*,*,#205,.T.);
#260=ORIENTED_EDGE('',*,*,#206,.F.);
#261=ORIENTED_EDGE('',*,*,#205,.F.);
#262=ORIENTED_EDGE('',*,*,#207,.F.);
#263=ORIENTED_EDGE('',*,*,#173,.T.);
#264=ORIENTED_EDGE('',*,*,#172,.T.);
#265=ORIENTED_EDGE('',*,*,#176,.T.);
#266=ORIENTED_EDGE('',*,*,#179,.T.);
#267=ORIENTED_EDGE('',*,*,#182,.T.);
#268=ORIENTED_EDGE('',*,*,#185,.T.);
#269=ORIENTED_EDGE('',*,*,#188,.T.);
#270=ORIENTED_EDGE('',*,*,#191,.T.);
#271=ORIENTED_EDGE('',*,*,#194,.T.);
#272=ORIENTED_EDGE('',*,*,#197,.T.);
#273=ORIENTED_EDGE('',*,*,#200,.T.);
#274=ORIENTED_EDGE('',*,*,#203,.T.);
#275=ORIENTED_EDGE('',*,*,#206,.T.);
#276=ORIENTED_EDGE('',*,*,#208,.T.);
#277=ORIENTED_EDGE('',*,*,#209,.F.);
#278=ORIENTED_EDGE('',*,*,#208,.F.);
#279=ORIENTED_EDGE('',*,*,#210,.T.);
#280=ORIENTED_EDGE('',*,*,#211,.T.);
#281=ORIENTED_EDGE('',*,*,#210,.F.);
#282=ORIENTED_EDGE('',*,*,#212,.F.);
#283=ORIENTED_EDGE('',*,*,#174,.T.);
#284=ORIENTED_EDGE('',*,*,#207,.T.);
#285=ORIENTED_EDGE('',*,*,#204,.T.);
#286=ORIENTED_EDGE('',*,*,#201,.T.);
#287=ORIENTED_EDGE('',*,*,#198,.T.);
#288=ORIENTED_EDGE('',*,*,#195,.T.);
#289=ORIENTED_EDGE('',*,*,#192,.T.);
#290=ORIENTED_EDGE('',*,*,#189,.T.);
#291=ORIENTED_EDGE('',*,*,#186,.T.);
#292=ORIENTED_EDGE('',*,*,#183,.T.);
#293=ORIENTED_EDGE('',*,*,#180,.T.);
#294=ORIENTED_EDGE('',*,*,#177,.T.);
#295=ORIENTED_EDGE('',*,*,#211,.F.);
#296=ORIENTED_EDGE('',*,*,#213,.T.);
#297=ORIENTED_EDGE('',*,*,#212,.T.);
#298=ORIENTED_EDGE('',*,*,#213,.F.);
#299=ORIENTED_EDGE('',*,*,#214,.F.);
#300=ORIENTED_EDGE('',*,*,#215,.T.);
#301=ORIENTED_EDGE('',*,*,#209,.T.);
#302=ORIENTED_EDGE('',*,*,#215,.F.);
#303=ORIENTED_EDGE('',*,*,#214,.T.);
#304=PLANE('',#353);
#305=PLANE('',#354);
#306=PLANE('',#355);
#307=PLANE('',#356);
#308=PLANE('',#357);
#309=PLANE('',#358);
#310=PLANE('',#359);
#311=PLANE('',#360);
#312=PLANE('',#361);
#313=PLANE('',#362);
#314=PLANE('',#363);
#315=PLANE('',#364);
#316=PLANE('',#365);
#317=PLANE('',#366);
#318=PLANE('',#371);
#319=PLANE('',#376);
#320=ADVANCED_FACE('',(#25),#304,.F.);
#321=ADVANCED_FACE('',(#26),#305,.F.);
#322=ADVANCED_FACE('',(#27),#306,.F.);
#323=ADVANCED_FACE('',(#28),#307,.F.);
#324=ADVANCED_FACE('',(#29),#308,.F.);
#325=ADVANCED_FACE('',(#30),#309,.F.);
#326=ADVANCED_FACE('',(#31),#310,.F.);
#327=ADVANCED_FACE('',(#32),#311,.F.);
#328=ADVANCED_FACE('',(#33),#312,.F.);
#329=ADVANCED_FACE('',(#34),#313,.F.);
#330=ADVANCED_FACE('',(#35),#314,.F.);
#331=ADVANCED_FACE('',(#36),#315,.F.);
#332=ADVANCED_FACE('',(#37),#316,.T.);
#333=ADVANCED_FACE('',(#38,#18),#317,.T.);
#334=ADVANCED_FACE('',(#39),#16,.T.);
#335=ADVANCED_FACE('',(#40,#19),#318,.T.);
#336=ADVANCED_FACE('',(#41),#15,.T.);
#337=ADVANCED_FACE('',(#42),#17,.T.);
#338=ADVANCED_FACE('',(#43),#319,.T.);
#339=CLOSED_SHELL('',(#320,#321,#322,#323,#324,#325,#326,#327,#328,#329,
#330,#331,#332,#333,#334,#335,#336,#337,#338));
#340=DERIVED_UNIT_ELEMENT(#342,1.);
#341=DERIVED_UNIT_ELEMENT(#564,-3.);
#342=(
MASS_UNIT()
NAMED_UNIT(*)
SI_UNIT(.KILO.,.GRAM.)
);
#343=DERIVED_UNIT((#340,#341));
#344=MEASURE_REPRESENTATION_ITEM('density measure',
POSITIVE_RATIO_MEASURE(7850.),#343);
#345=PROPERTY_DEFINITION_REPRESENTATION(#350,#347);
#346=PROPERTY_DEFINITION_REPRESENTATION(#351,#348);
#347=REPRESENTATION('material name',(#349),#561);
#348=REPRESENTATION('density',(#344),#561);
#349=DESCRIPTIVE_REPRESENTATION_ITEM('Steel','Steel');
#350=PROPERTY_DEFINITION('material property','material name',#571);
#351=PROPERTY_DEFINITION('material property','density of part',#571);
#352=AXIS2_PLACEMENT_3D('placement',#466,#377,#378);
#353=AXIS2_PLACEMENT_3D('',#467,#379,#380);
#354=AXIS2_PLACEMENT_3D('',#476,#385,#386);
#355=AXIS2_PLACEMENT_3D('',#482,#390,#391);
#356=AXIS2_PLACEMENT_3D('',#488,#395,#396);
#357=AXIS2_PLACEMENT_3D('',#494,#400,#401);
#358=AXIS2_PLACEMENT_3D('',#500,#405,#406);
#359=AXIS2_PLACEMENT_3D('',#506,#410,#411);
#360=AXIS2_PLACEMENT_3D('',#512,#415,#416);
#361=AXIS2_PLACEMENT_3D('',#518,#420,#421);
#362=AXIS2_PLACEMENT_3D('',#524,#425,#426);
#363=AXIS2_PLACEMENT_3D('',#530,#430,#431);
#364=AXIS2_PLACEMENT_3D('',#536,#435,#436);
#365=AXIS2_PLACEMENT_3D('',#539,#439,#440);
#366=AXIS2_PLACEMENT_3D('',#540,#441,#442);
#367=AXIS2_PLACEMENT_3D('',#542,#443,#444);
#368=AXIS2_PLACEMENT_3D('',#544,#445,#446);
#369=AXIS2_PLACEMENT_3D('',#545,#447,#448);
#370=AXIS2_PLACEMENT_3D('',#548,#450,#451);
#371=AXIS2_PLACEMENT_3D('',#549,#452,#453);
#372=AXIS2_PLACEMENT_3D('',#551,#454,#455);
#373=AXIS2_PLACEMENT_3D('',#552,#456,#457);
#374=AXIS2_PLACEMENT_3D('',#554,#459,#460);
#375=AXIS2_PLACEMENT_3D('',#556,#461,#462);
#376=AXIS2_PLACEMENT_3D('',#558,#464,#465);
#377=DIRECTION('axis',(0.,0.,1.));
#378=DIRECTION('refdir',(1.,0.,0.));
#379=DIRECTION('center_axis',(0.,0.965925826289068,0.258819045102521));
#380=DIRECTION('ref_axis',(-1.,0.,0.));
#381=DIRECTION('',(1.,0.,0.));
#382=DIRECTION('',(0.250562807085732,-0.250562807085732,0.935113126531029));
#383=DIRECTION('',(-1.,0.,0.));
#384=DIRECTION('',(0.250562807085732,-0.250562807085732,0.935113126531029));
#385=DIRECTION('center_axis',(-0.965925826289068,0.,0.258819045102521));
#386=DIRECTION('ref_axis',(0.,-1.,0.));
#387=DIRECTION('',(0.,1.,0.));
#388=DIRECTION('',(0.,-1.,0.));
#389=DIRECTION('',(0.250562807085732,-0.250562807085732,0.935113126531029));
#390=DIRECTION('center_axis',(0.,0.965925826289068,0.258819045102521));
#391=DIRECTION('ref_axis',(-1.,0.,0.));
#392=DIRECTION('',(1.,0.,0.));
#393=DIRECTION('',(-1.,0.,0.));
#394=DIRECTION('',(-0.250562807085732,-0.250562807085732,0.935113126531029));
#395=DIRECTION('center_axis',(0.965925826289068,0.,0.258819045102521));
#396=DIRECTION('ref_axis',(0.,1.,0.));
#397=DIRECTION('',(0.,-1.,0.));
#398=DIRECTION('',(0.,1.,0.));
#399=DIRECTION('',(-0.250562807085732,-0.250562807085732,0.935113126531029));
#400=DIRECTION('center_axis',(0.,0.965925826289068,0.258819045102521));
#401=DIRECTION('ref_axis',(-1.,0.,0.));
#402=DIRECTION('',(1.,0.,0.));
#403=DIRECTION('',(-1.,0.,0.));
#404=DIRECTION('',(-0.250562807085732,-0.250562807085732,0.935113126531029));
#405=DIRECTION('center_axis',(0.965925826289068,0.,0.258819045102521));
#406=DIRECTION('ref_axis',(0.,1.,0.));
#407=DIRECTION('',(0.,-1.,0.));
#408=DIRECTION('',(0.,1.,0.));
#409=DIRECTION('',(-0.250562807085732,0.250562807085732,0.935113126531029));
#410=DIRECTION('center_axis',(0.,-0.965925826289068,0.258819045102521));
#411=DIRECTION('ref_axis',(1.,0.,0.));
#412=DIRECTION('',(-1.,0.,0.));
#413=DIRECTION('',(1.,0.,0.));
#414=DIRECTION('',(-0.250562807085732,0.250562807085732,0.935113126531029));
#415=DIRECTION('center_axis',(0.965925826289068,0.,0.258819045102521));
#416=DIRECTION('ref_axis',(0.,1.,0.));
#417=DIRECTION('',(0.,-1.,0.));
#418=DIRECTION('',(0.,1.,0.));
#419=DIRECTION('',(-0.250562807085732,0.250562807085732,0.935113126531029));
#420=DIRECTION('center_axis',(0.,-0.965925826289068,0.258819045102521));
#421=DIRECTION('ref_axis',(1.,0.,0.));
#422=DIRECTION('',(-1.,0.,0.));
#423=DIRECTION('',(1.,0.,0.));
#424=DIRECTION('',(0.250562807085732,0.250562807085732,0.935113126531029));
#425=DIRECTION('center_axis',(-0.965925826289068,0.,0.258819045102521));
#426=DIRECTION('ref_axis',(0.,-1.,0.));
#427=DIRECTION('',(0.,1.,0.));
#428=DIRECTION('',(0.,-1.,0.));
#429=DIRECTION('',(0.250562807085732,0.250562807085731,0.935113126531029));
#430=DIRECTION('center_axis',(0.,-0.965925826289068,0.258819045102521));
#431=DIRECTION('ref_axis',(1.,0.,0.));
#432=DIRECTION('',(-1.,0.,0.));
#433=DIRECTION('',(1.,0.,0.));
#434=DIRECTION('',(0.250562807085732,0.250562807085731,0.935113126531029));
#435=DIRECTION('center_axis',(-0.965925826289068,0.,0.258819045102521));
#436=DIRECTION('ref_axis',(0.,-1.,0.));
#437=DIRECTION('',(0.,1.,0.));
#438=DIRECTION('',(0.,-1.,0.));
#439=DIRECTION('center_axis',(0.,0.,-1.));
#440=DIRECTION('ref_axis',(-1.,0.,0.));
#441=DIRECTION('center_axis',(0.,0.,1.));
#442=DIRECTION('ref_axis',(1.,0.,0.));
#443=DIRECTION('center_axis',(0.,0.,1.));
#444=DIRECTION('ref_axis',(1.,0.,0.));
#445=DIRECTION('center_axis',(0.,0.,1.));
#446=DIRECTION('ref_axis',(1.,0.,0.));
#447=DIRECTION('center_axis',(0.,0.,1.));
#448=DIRECTION('ref_axis',(1.,0.,0.));
#449=DIRECTION('',(0.,0.,-1.));
#450=DIRECTION('center_axis',(0.,0.,1.));
#451=DIRECTION('ref_axis',(1.,0.,0.));
#452=DIRECTION('center_axis',(0.,0.,-1.));
#453=DIRECTION('ref_axis',(-1.,0.,0.));
#454=DIRECTION('center_axis',(0.,0.,1.));
#455=DIRECTION('ref_axis',(1.,0.,0.));
#456=DIRECTION('center_axis',(0.,0.,-1.));
#457=DIRECTION('ref_axis',(1.,0.,0.));
#458=DIRECTION('',(-0.410364677328797,-5.02551788573848E-17,-0.911921505175107));
#459=DIRECTION('center_axis',(0.,0.,1.));
#460=DIRECTION('ref_axis',(1.,0.,0.));
#461=DIRECTION('center_axis',(0.,0.,-1.));
#462=DIRECTION('ref_axis',(1.,0.,0.));
#463=DIRECTION('',(0.,0.,-1.));
#464=DIRECTION('center_axis',(0.,0.,1.));
#465=DIRECTION('ref_axis',(1.,0.,0.));
#466=CARTESIAN_POINT('',(0.,0.,0.));
#467=CARTESIAN_POINT('Origin',(-1.25,0.4,-30.));
#468=CARTESIAN_POINT('',(-0.982050807568877,0.132050807568877,-29.));
#469=CARTESIAN_POINT('',(-0.132050807568877,0.132050807568877,-29.));
#470=CARTESIAN_POINT('',(-1.25,0.132050807568877,-29.));
#471=CARTESIAN_POINT('',(-1.25,0.4,-30.));
#472=CARTESIAN_POINT('',(-1.22488731188213,0.374887311882128,-29.9062781720295));
#473=CARTESIAN_POINT('',(-0.4,0.4,-30.));
#474=CARTESIAN_POINT('',(0.2125,0.4,-30.));
#475=CARTESIAN_POINT('',(-0.42668223112524,0.42668223112524,-30.0995794422187));
#476=CARTESIAN_POINT('Origin',(-0.4,0.4,-30.));
#477=CARTESIAN_POINT('',(-0.132050807568877,0.982050807568877,-29.));
#478=CARTESIAN_POINT('',(-0.132050807568877,-1.25,-29.));
#479=CARTESIAN_POINT('',(-0.4,1.25,-30.));
#480=CARTESIAN_POINT('',(-0.4,0.2,-30.));
#481=CARTESIAN_POINT('',(-0.37331776887476,1.22331776887476,-29.9004205577813));
#482=CARTESIAN_POINT('Origin',(-0.4,1.25,-30.));
#483=CARTESIAN_POINT('',(0.132050807568877,0.982050807568877,-29.));
#484=CARTESIAN_POINT('',(-0.4,0.982050807568877,-29.));
#485=CARTESIAN_POINT('',(0.4,1.25,-30.));
#486=CARTESIAN_POINT('',(0.6375,1.25,-30.));
#487=CARTESIAN_POINT('',(0.374887311882127,1.22488731188213,-29.9062781720295));
#488=CARTESIAN_POINT('Origin',(0.4,1.25,-30.));
#489=CARTESIAN_POINT('',(0.132050807568877,0.132050807568877,-29.));
#490=CARTESIAN_POINT('',(0.132050807568877,1.25,-29.));
#491=CARTESIAN_POINT('',(0.4,0.4,-30.));
#492=CARTESIAN_POINT('',(0.4,0.625,-30.));
#493=CARTESIAN_POINT('',(0.42668223112524,0.42668223112524,-30.0995794422187));
#494=CARTESIAN_POINT('Origin',(0.4,0.4,-30.));
#495=CARTESIAN_POINT('',(0.982050807568877,0.132050807568877,-29.));
#496=CARTESIAN_POINT('',(-1.25,0.132050807568877,-29.));
#497=CARTESIAN_POINT('',(1.25,0.4,-30.));
#498=CARTESIAN_POINT('',(1.0375,0.4,-30.));
#499=CARTESIAN_POINT('',(1.22331776887476,0.37331776887476,-29.9004205577813));
#500=CARTESIAN_POINT('Origin',(1.25,0.4,-30.));
#501=CARTESIAN_POINT('',(0.982050807568877,-0.132050807568877,-29.));
#502=CARTESIAN_POINT('',(0.982050807568877,0.4,-29.));
#503=CARTESIAN_POINT('',(1.25,-0.4,-30.));
#504=CARTESIAN_POINT('',(1.25,0.2,-30.));
#505=CARTESIAN_POINT('',(1.22488731188213,-0.374887311882127,-29.9062781720295));
#506=CARTESIAN_POINT('Origin',(1.25,-0.4,-30.));
#507=CARTESIAN_POINT('',(0.132050807568877,-0.132050807568877,-29.));
#508=CARTESIAN_POINT('',(1.25,-0.132050807568877,-29.));
#509=CARTESIAN_POINT('',(0.4,-0.4,-30.));
#510=CARTESIAN_POINT('',(1.4625,-0.4,-30.));
#511=CARTESIAN_POINT('',(0.42668223112524,-0.42668223112524,-30.0995794422187));
#512=CARTESIAN_POINT('Origin',(0.4,-0.4,-30.));
#513=CARTESIAN_POINT('',(0.132050807568877,-0.982050807568877,-29.));
#514=CARTESIAN_POINT('',(0.132050807568877,1.25,-29.));
#515=CARTESIAN_POINT('',(0.4,-1.25,-30.));
#516=CARTESIAN_POINT('',(0.4,-0.2,-30.));
#517=CARTESIAN_POINT('',(0.37331776887476,-1.22331776887476,-29.9004205577813));
#518=CARTESIAN_POINT('Origin',(0.4,-1.25,-30.));
#519=CARTESIAN_POINT('',(-0.132050807568877,-0.982050807568877,-29.));
#520=CARTESIAN_POINT('',(0.4,-0.982050807568877,-29.));
#521=CARTESIAN_POINT('',(-0.4,-1.25,-30.));
#522=CARTESIAN_POINT('',(1.0375,-1.25,-30.));
#523=CARTESIAN_POINT('',(-0.374887311882127,-1.22488731188213,-29.9062781720295));
#524=CARTESIAN_POINT('Origin',(-0.4,-1.25,-30.));
#525=CARTESIAN_POINT('',(-0.132050807568877,-0.132050807568877,-29.));
#526=CARTESIAN_POINT('',(-0.132050807568877,-1.25,-29.));
#527=CARTESIAN_POINT('',(-0.4,-0.4,-30.));
#528=CARTESIAN_POINT('',(-0.4,-0.625,-30.));
#529=CARTESIAN_POINT('',(-0.42668223112524,-0.42668223112524,-30.0995794422187));
#530=CARTESIAN_POINT('Origin',(-0.4,-0.4,-30.));
#531=CARTESIAN_POINT('',(-0.982050807568877,-0.132050807568877,-29.));
#532=CARTESIAN_POINT('',(1.25,-0.132050807568877,-29.));
#533=CARTESIAN_POINT('',(-1.25,-0.4,-30.));
#534=CARTESIAN_POINT('',(0.6375,-0.4,-30.));
#535=CARTESIAN_POINT('',(-1.22331776887476,-0.37331776887476,-29.9004205577813));
#536=CARTESIAN_POINT('Origin',(-1.25,-0.4,-30.));
#537=CARTESIAN_POINT('',(-0.982050807568877,-0.4,-29.));
#538=CARTESIAN_POINT('',(-1.25,-0.2,-30.));
#539=CARTESIAN_POINT('Origin',(0.,0.,-29.));
#540=CARTESIAN_POINT('Origin',(0.,0.,-3.5));
#541=CARTESIAN_POINT('',(-1.,-1.22464679914735E-16,-3.5));
#542=CARTESIAN_POINT('Origin',(0.,0.,-3.5));
#543=CARTESIAN_POINT('',(-0.96675,-1.1839272930757E-16,-3.5));
#544=CARTESIAN_POINT('Origin',(0.,0.,-3.5));
#545=CARTESIAN_POINT('Origin',(0.,0.,-16.));
#546=CARTESIAN_POINT('',(-1.,-1.22464679914735E-16,-28.5));
#547=CARTESIAN_POINT('',(-1.,-1.22464679914735E-16,-16.));
#548=CARTESIAN_POINT('Origin',(0.,0.,-28.5));
#549=CARTESIAN_POINT('Origin',(1.675,0.,-30.));
#550=CARTESIAN_POINT('',(-1.675,-2.05128338857182E-16,-30.));
#551=CARTESIAN_POINT('Origin',(0.,0.,-30.));
#552=CARTESIAN_POINT('Origin',(0.,0.,-29.25));
#553=CARTESIAN_POINT('',(-1.3375,-1.63796509385959E-16,-29.25));
#554=CARTESIAN_POINT('Origin',(0.,0.,-1.75));
#555=CARTESIAN_POINT('',(-0.96675,1.1839272930757E-16,0.));
#556=CARTESIAN_POINT('Origin',(0.,0.,0.));
#557=CARTESIAN_POINT('',(-0.96675,-1.1839272930757E-16,-1.75));
#558=CARTESIAN_POINT('Origin',(0.,0.,0.));
#559=UNCERTAINTY_MEASURE_WITH_UNIT(LENGTH_MEASURE(0.01),#563,
'DISTANCE_ACCURACY_VALUE',
'Maximum model space distance between geometric entities at asserted c
onnectivities');
#560=UNCERTAINTY_MEASURE_WITH_UNIT(LENGTH_MEASURE(0.01),#563,
'DISTANCE_ACCURACY_VALUE',
'Maximum model space distance between geometric entities at asserted c
onnectivities');
#561=(
GEOMETRIC_REPRESENTATION_CONTEXT(3)
GLOBAL_UNCERTAINTY_ASSIGNED_CONTEXT((#559))
GLOBAL_UNIT_ASSIGNED_CONTEXT((#563,#565,#566))
REPRESENTATION_CONTEXT('','3D')
);
#562=(
GEOMETRIC_REPRESENTATION_CONTEXT(3)
GLOBAL_UNCERTAINTY_ASSIGNED_CONTEXT((#560))
GLOBAL_UNIT_ASSIGNED_CONTEXT((#563,#565,#566))
REPRESENTATION_CONTEXT('','3D')
);
#563=(
LENGTH_UNIT()
NAMED_UNIT(*)
SI_UNIT(.MILLI.,.METRE.)
);
#564=(
LENGTH_UNIT()
NAMED_UNIT(*)
SI_UNIT($,.METRE.)
);
#565=(
NAMED_UNIT(*)
PLANE_ANGLE_UNIT()
SI_UNIT($,.RADIAN.)
);
#566=(
NAMED_UNIT(*)
SI_UNIT($,.STERADIAN.)
SOLID_ANGLE_UNIT()
);
#567=SHAPE_DEFINITION_REPRESENTATION(#568,#569);
#568=PRODUCT_DEFINITION_SHAPE('',$,#571);
#569=SHAPE_REPRESENTATION('',(#352),#561);
#570=PRODUCT_DEFINITION_CONTEXT('part definition',#575,'design');
#571=PRODUCT_DEFINITION('Threaded pin 2x30','Threaded pin 2x30 v1',#572,
#570);
#572=PRODUCT_DEFINITION_FORMATION('',$,#577);
#573=PRODUCT_RELATED_PRODUCT_CATEGORY('Threaded pin 2x30 v1',
'Threaded pin 2x30 v1',(#577));
#574=APPLICATION_PROTOCOL_DEFINITION('international standard',
'automotive_design',2009,#575);
#575=APPLICATION_CONTEXT(
'Core Data for Automotive Mechanical Design Process');
#576=PRODUCT_CONTEXT('part definition',#575,'mechanical');
#577=PRODUCT('Threaded pin 2x30','Threaded pin 2x30 v1',$,(#576));
#578=PRESENTATION_STYLE_ASSIGNMENT((#579));
#579=SURFACE_STYLE_USAGE(.BOTH.,#580);
#580=SURFACE_SIDE_STYLE('',(#581));
#581=SURFACE_STYLE_FILL_AREA(#582);
#582=FILL_AREA_STYLE('Steel - Satin',(#583));
#583=FILL_AREA_STYLE_COLOUR('Steel - Satin',#584);
#584=COLOUR_RGB('Steel - Satin',0.627450980392157,0.627450980392157,0.627450980392157);
ENDSEC;
END-ISO-10303-21;
