ISO-10303-21;
HEADER;
/* Generated by software containing ST-Developer
 * from STEP Tools, Inc. (www.steptools.com) 
 */

FILE_DESCRIPTION(
/* description */ (''),
/* implementation_level */ '2;1');

FILE_NAME(
/* name */ 
'H:/WebServers/home/kvantocars/www/files/step/Wheel_driveshaft_v1.step',

/* time_stamp */ '2022-03-24T12:16:34+04:00',
/* author */ (''),
/* organization */ (''),
/* preprocessor_version */ 'ST-DEVELOPER v18.1',
/* originating_system */ 'Autodesk Translation Framework v10.13.0.1454',

/* authorisation */ '');

FILE_SCHEMA (('AUTOMOTIVE_DESIGN { 1 0 10303 214 3 1 1 }'));
ENDSEC;

DATA;
#10=MECHANICAL_DESIGN_GEOMETRIC_PRESENTATION_REPRESENTATION('',(#13),#318);
#11=SHAPE_REPRESENTATION_RELATIONSHIP('SRR','None',#325,#12);
#12=ADVANCED_BREP_SHAPE_REPRESENTATION('',(#14),#317);
#13=STYLED_ITEM('',(#334),#14);
#14=MANIFOLD_SOLID_BREP('Body1',#168);
#15=FACE_BOUND('',#50,.T.);
#16=FACE_BOUND('',#51,.T.);
#17=FACE_BOUND('',#54,.T.);
#18=FACE_BOUND('',#55,.T.);
#19=SPHERICAL_SURFACE('',#200,2.60000000000002);
#20=SPHERICAL_SURFACE('',#205,2.60000000000005);
#21=PLANE('',#188);
#22=PLANE('',#189);
#23=PLANE('',#196);
#24=PLANE('',#197);
#25=PLANE('',#198);
#26=PLANE('',#208);
#27=FACE_OUTER_BOUND('',#40,.T.);
#28=FACE_OUTER_BOUND('',#41,.T.);
#29=FACE_OUTER_BOUND('',#42,.T.);
#30=FACE_OUTER_BOUND('',#43,.T.);
#31=FACE_OUTER_BOUND('',#44,.T.);
#32=FACE_OUTER_BOUND('',#45,.T.);
#33=FACE_OUTER_BOUND('',#46,.T.);
#34=FACE_OUTER_BOUND('',#47,.T.);
#35=FACE_OUTER_BOUND('',#48,.T.);
#36=FACE_OUTER_BOUND('',#49,.T.);
#37=FACE_OUTER_BOUND('',#52,.T.);
#38=FACE_OUTER_BOUND('',#53,.T.);
#39=FACE_OUTER_BOUND('',#56,.T.);
#40=EDGE_LOOP('',(#112,#113,#114,#115));
#41=EDGE_LOOP('',(#116,#117,#118,#119));
#42=EDGE_LOOP('',(#120));
#43=EDGE_LOOP('',(#121));
#44=EDGE_LOOP('',(#122,#123,#124,#125));
#45=EDGE_LOOP('',(#126,#127,#128,#129));
#46=EDGE_LOOP('',(#130));
#47=EDGE_LOOP('',(#131));
#48=EDGE_LOOP('',(#132));
#49=EDGE_LOOP('',(#133,#134,#135,#136));
#50=EDGE_LOOP('',(#137));
#51=EDGE_LOOP('',(#138));
#52=EDGE_LOOP('',(#139,#140,#141,#142));
#53=EDGE_LOOP('',(#143,#144,#145,#146));
#54=EDGE_LOOP('',(#147));
#55=EDGE_LOOP('',(#148));
#56=EDGE_LOOP('',(#149));
#57=LINE('',#275,#62);
#58=LINE('',#281,#63);
#59=LINE('',#289,#64);
#60=LINE('',#295,#65);
#61=LINE('',#309,#66);
#62=VECTOR('',#215,0.999999999999997);
#63=VECTOR('',#222,0.999999999999997);
#64=VECTOR('',#233,0.999999999999997);
#65=VECTOR('',#240,0.999999999999997);
#66=VECTOR('',#261,1.50000000000001);
#67=CIRCLE('',#183,0.999999999999997);
#68=CIRCLE('',#184,0.999999999999997);
#69=CIRCLE('',#186,0.999999999999997);
#70=CIRCLE('',#187,0.999999999999997);
#71=CIRCLE('',#191,0.999999999999997);
#72=CIRCLE('',#192,0.999999999999997);
#73=CIRCLE('',#194,0.999999999999997);
#74=CIRCLE('',#195,0.999999999999997);
#75=CIRCLE('',#199,1.25);
#76=CIRCLE('',#201,1.50000000000001);
#77=CIRCLE('',#202,2.60000000000002);
#78=CIRCLE('',#204,1.49999999999999);
#79=CIRCLE('',#206,1.24999999999997);
#80=CIRCLE('',#207,2.60000000000005);
#81=VERTEX_POINT('',#272);
#82=VERTEX_POINT('',#274);
#83=VERTEX_POINT('',#278);
#84=VERTEX_POINT('',#280);
#85=VERTEX_POINT('',#286);
#86=VERTEX_POINT('',#288);
#87=VERTEX_POINT('',#292);
#88=VERTEX_POINT('',#294);
#89=VERTEX_POINT('',#300);
#90=VERTEX_POINT('',#303);
#91=VERTEX_POINT('',#307);
#92=VERTEX_POINT('',#311);
#93=EDGE_CURVE('',#81,#81,#67,.T.);
#94=EDGE_CURVE('',#81,#82,#57,.T.);
#95=EDGE_CURVE('',#82,#82,#68,.T.);
#96=EDGE_CURVE('',#83,#83,#69,.T.);
#97=EDGE_CURVE('',#83,#84,#58,.T.);
#98=EDGE_CURVE('',#84,#84,#70,.T.);
#99=EDGE_CURVE('',#85,#85,#71,.T.);
#100=EDGE_CURVE('',#85,#86,#59,.T.);
#101=EDGE_CURVE('',#86,#86,#72,.T.);
#102=EDGE_CURVE('',#87,#87,#73,.T.);
#103=EDGE_CURVE('',#87,#88,#60,.T.);
#104=EDGE_CURVE('',#88,#88,#74,.T.);
#105=EDGE_CURVE('',#89,#89,#75,.T.);
#106=EDGE_CURVE('',#90,#90,#76,.T.);
#107=EDGE_CURVE('',#90,#89,#77,.T.);
#108=EDGE_CURVE('',#91,#91,#78,.T.);
#109=EDGE_CURVE('',#91,#90,#61,.T.);
#110=EDGE_CURVE('',#92,#92,#79,.T.);
#111=EDGE_CURVE('',#92,#91,#80,.T.);
#112=ORIENTED_EDGE('',*,*,#93,.F.);
#113=ORIENTED_EDGE('',*,*,#94,.T.);
#114=ORIENTED_EDGE('',*,*,#95,.F.);
#115=ORIENTED_EDGE('',*,*,#94,.F.);
#116=ORIENTED_EDGE('',*,*,#96,.F.);
#117=ORIENTED_EDGE('',*,*,#97,.T.);
#118=ORIENTED_EDGE('',*,*,#98,.F.);
#119=ORIENTED_EDGE('',*,*,#97,.F.);
#120=ORIENTED_EDGE('',*,*,#95,.T.);
#121=ORIENTED_EDGE('',*,*,#96,.T.);
#122=ORIENTED_EDGE('',*,*,#99,.F.);
#123=ORIENTED_EDGE('',*,*,#100,.T.);
#124=ORIENTED_EDGE('',*,*,#101,.F.);
#125=ORIENTED_EDGE('',*,*,#100,.F.);
#126=ORIENTED_EDGE('',*,*,#102,.F.);
#127=ORIENTED_EDGE('',*,*,#103,.T.);
#128=ORIENTED_EDGE('',*,*,#104,.F.);
#129=ORIENTED_EDGE('',*,*,#103,.F.);
#130=ORIENTED_EDGE('',*,*,#101,.T.);
#131=ORIENTED_EDGE('',*,*,#102,.T.);
#132=ORIENTED_EDGE('',*,*,#105,.F.);
#133=ORIENTED_EDGE('',*,*,#106,.F.);
#134=ORIENTED_EDGE('',*,*,#107,.T.);
#135=ORIENTED_EDGE('',*,*,#105,.T.);
#136=ORIENTED_EDGE('',*,*,#107,.F.);
#137=ORIENTED_EDGE('',*,*,#98,.T.);
#138=ORIENTED_EDGE('',*,*,#93,.T.);
#139=ORIENTED_EDGE('',*,*,#108,.F.);
#140=ORIENTED_EDGE('',*,*,#109,.T.);
#141=ORIENTED_EDGE('',*,*,#106,.T.);
#142=ORIENTED_EDGE('',*,*,#109,.F.);
#143=ORIENTED_EDGE('',*,*,#110,.F.);
#144=ORIENTED_EDGE('',*,*,#111,.T.);
#145=ORIENTED_EDGE('',*,*,#108,.T.);
#146=ORIENTED_EDGE('',*,*,#111,.F.);
#147=ORIENTED_EDGE('',*,*,#104,.T.);
#148=ORIENTED_EDGE('',*,*,#99,.T.);
#149=ORIENTED_EDGE('',*,*,#110,.T.);
#150=CYLINDRICAL_SURFACE('',#182,0.999999999999997);
#151=CYLINDRICAL_SURFACE('',#185,0.999999999999997);
#152=CYLINDRICAL_SURFACE('',#190,0.999999999999997);
#153=CYLINDRICAL_SURFACE('',#193,0.999999999999997);
#154=CYLINDRICAL_SURFACE('',#203,1.50000000000001);
#155=ADVANCED_FACE('',(#27),#150,.T.);
#156=ADVANCED_FACE('',(#28),#151,.T.);
#157=ADVANCED_FACE('',(#29),#21,.F.);
#158=ADVANCED_FACE('',(#30),#22,.T.);
#159=ADVANCED_FACE('',(#31),#152,.T.);
#160=ADVANCED_FACE('',(#32),#153,.T.);
#161=ADVANCED_FACE('',(#33),#23,.F.);
#162=ADVANCED_FACE('',(#34),#24,.T.);
#163=ADVANCED_FACE('',(#35),#25,.T.);
#164=ADVANCED_FACE('',(#36,#15,#16),#19,.T.);
#165=ADVANCED_FACE('',(#37),#154,.T.);
#166=ADVANCED_FACE('',(#38,#17,#18),#20,.T.);
#167=ADVANCED_FACE('',(#39),#26,.T.);
#168=CLOSED_SHELL('',(#155,#156,#157,#158,#159,#160,#161,#162,#163,#164,
#165,#166,#167));
#169=DERIVED_UNIT_ELEMENT(#171,1.);
#170=DERIVED_UNIT_ELEMENT(#320,-3.);
#171=(
MASS_UNIT()
NAMED_UNIT(*)
SI_UNIT(.KILO.,.GRAM.)
);
#172=DERIVED_UNIT((#169,#170));
#173=MEASURE_REPRESENTATION_ITEM('density measure',
POSITIVE_RATIO_MEASURE(7850.),#172);
#174=PROPERTY_DEFINITION_REPRESENTATION(#179,#176);
#175=PROPERTY_DEFINITION_REPRESENTATION(#180,#177);
#176=REPRESENTATION('material name',(#178),#317);
#177=REPRESENTATION('density',(#173),#317);
#178=DESCRIPTIVE_REPRESENTATION_ITEM('Steel','Steel');
#179=PROPERTY_DEFINITION('material property','material name',#327);
#180=PROPERTY_DEFINITION('material property','density of part',#327);
#181=AXIS2_PLACEMENT_3D('placement',#270,#209,#210);
#182=AXIS2_PLACEMENT_3D('',#271,#211,#212);
#183=AXIS2_PLACEMENT_3D('',#273,#213,#214);
#184=AXIS2_PLACEMENT_3D('',#276,#216,#217);
#185=AXIS2_PLACEMENT_3D('',#277,#218,#219);
#186=AXIS2_PLACEMENT_3D('',#279,#220,#221);
#187=AXIS2_PLACEMENT_3D('',#282,#223,#224);
#188=AXIS2_PLACEMENT_3D('',#283,#225,#226);
#189=AXIS2_PLACEMENT_3D('',#284,#227,#228);
#190=AXIS2_PLACEMENT_3D('',#285,#229,#230);
#191=AXIS2_PLACEMENT_3D('',#287,#231,#232);
#192=AXIS2_PLACEMENT_3D('',#290,#234,#235);
#193=AXIS2_PLACEMENT_3D('',#291,#236,#237);
#194=AXIS2_PLACEMENT_3D('',#293,#238,#239);
#195=AXIS2_PLACEMENT_3D('',#296,#241,#242);
#196=AXIS2_PLACEMENT_3D('',#297,#243,#244);
#197=AXIS2_PLACEMENT_3D('',#298,#245,#246);
#198=AXIS2_PLACEMENT_3D('',#299,#247,#248);
#199=AXIS2_PLACEMENT_3D('',#301,#249,#250);
#200=AXIS2_PLACEMENT_3D('',#302,#251,#252);
#201=AXIS2_PLACEMENT_3D('',#304,#253,#254);
#202=AXIS2_PLACEMENT_3D('',#305,#255,#256);
#203=AXIS2_PLACEMENT_3D('',#306,#257,#258);
#204=AXIS2_PLACEMENT_3D('',#308,#259,#260);
#205=AXIS2_PLACEMENT_3D('',#310,#262,#263);
#206=AXIS2_PLACEMENT_3D('',#312,#264,#265);
#207=AXIS2_PLACEMENT_3D('',#313,#266,#267);
#208=AXIS2_PLACEMENT_3D('',#314,#268,#269);
#209=DIRECTION('axis',(0.,0.,1.));
#210=DIRECTION('refdir',(1.,0.,0.));
#211=DIRECTION('center_axis',(0.,1.,0.));
#212=DIRECTION('ref_axis',(1.,0.,0.));
#213=DIRECTION('center_axis',(0.,1.,0.));
#214=DIRECTION('ref_axis',(1.,0.,0.));
#215=DIRECTION('',(0.,-1.,0.));
#216=DIRECTION('center_axis',(0.,-1.,0.));
#217=DIRECTION('ref_axis',(1.,0.,0.));
#218=DIRECTION('center_axis',(0.,1.,0.));
#219=DIRECTION('ref_axis',(1.,0.,0.));
#220=DIRECTION('center_axis',(0.,1.,0.));
#221=DIRECTION('ref_axis',(1.,0.,0.));
#222=DIRECTION('',(0.,-1.,0.));
#223=DIRECTION('center_axis',(0.,-1.,0.));
#224=DIRECTION('ref_axis',(1.,0.,0.));
#225=DIRECTION('center_axis',(0.,1.,0.));
#226=DIRECTION('ref_axis',(1.,0.,0.));
#227=DIRECTION('center_axis',(0.,1.,0.));
#228=DIRECTION('ref_axis',(1.,0.,0.));
#229=DIRECTION('center_axis',(0.,1.,0.));
#230=DIRECTION('ref_axis',(1.,0.,0.));
#231=DIRECTION('center_axis',(0.,1.,0.));
#232=DIRECTION('ref_axis',(1.,0.,0.));
#233=DIRECTION('',(0.,-1.,0.));
#234=DIRECTION('center_axis',(0.,-1.,0.));
#235=DIRECTION('ref_axis',(1.,0.,0.));
#236=DIRECTION('center_axis',(0.,1.,0.));
#237=DIRECTION('ref_axis',(1.,0.,0.));
#238=DIRECTION('center_axis',(0.,1.,0.));
#239=DIRECTION('ref_axis',(1.,0.,0.));
#240=DIRECTION('',(0.,-1.,0.));
#241=DIRECTION('center_axis',(0.,-1.,0.));
#242=DIRECTION('ref_axis',(1.,0.,0.));
#243=DIRECTION('center_axis',(0.,1.,0.));
#244=DIRECTION('ref_axis',(1.,0.,0.));
#245=DIRECTION('center_axis',(0.,1.,0.));
#246=DIRECTION('ref_axis',(1.,0.,0.));
#247=DIRECTION('center_axis',(-4.06398269620986E-16,0.,-1.));
#248=DIRECTION('ref_axis',(-1.,0.,4.06398269620986E-16));
#249=DIRECTION('center_axis',(4.06398269620986E-16,0.,1.));
#250=DIRECTION('ref_axis',(1.,0.,-4.06398269620986E-16));
#251=DIRECTION('center_axis',(6.12323399573675E-17,0.,1.));
#252=DIRECTION('ref_axis',(1.,0.,0.));
#253=DIRECTION('center_axis',(4.06398269620986E-16,0.,1.));
#254=DIRECTION('ref_axis',(1.,0.,-4.06398269620986E-16));
#255=DIRECTION('center_axis',(1.22464679914735E-16,-1.,0.));
#256=DIRECTION('ref_axis',(-1.,-1.22464679914735E-16,0.));
#257=DIRECTION('center_axis',(4.06398269620986E-16,0.,1.));
#258=DIRECTION('ref_axis',(1.,0.,0.));
#259=DIRECTION('center_axis',(4.06398269620986E-16,0.,1.));
#260=DIRECTION('ref_axis',(1.,0.,-4.06398269620986E-16));
#261=DIRECTION('',(-4.06398269620986E-16,0.,-1.));
#262=DIRECTION('center_axis',(6.12323399573672E-17,0.,1.));
#263=DIRECTION('ref_axis',(1.,0.,0.));
#264=DIRECTION('center_axis',(4.06398269620986E-16,0.,1.));
#265=DIRECTION('ref_axis',(1.,0.,-4.06398269620986E-16));
#266=DIRECTION('center_axis',(1.22464679914735E-16,-1.,0.));
#267=DIRECTION('ref_axis',(-1.,-1.22464679914735E-16,0.));
#268=DIRECTION('center_axis',(4.06398269620986E-16,0.,1.));
#269=DIRECTION('ref_axis',(1.,0.,-4.06398269620986E-16));
#270=CARTESIAN_POINT('',(0.,0.,0.));
#271=CARTESIAN_POINT('Origin',(-1.81631571136996E-14,0.,-22.8951973769644));
#272=CARTESIAN_POINT('',(-1.00000000000002,-2.40000000000003,-22.8951973769644));
#273=CARTESIAN_POINT('Origin',(-1.81631571136996E-14,-2.40000000000003,
-22.8951973769644));
#274=CARTESIAN_POINT('',(-1.00000000000002,-3.925,-22.8951973769644));
#275=CARTESIAN_POINT('',(-1.00000000000002,0.,-22.8951973769644));
#276=CARTESIAN_POINT('Origin',(-1.81631571136996E-14,-3.925,-22.8951973769644));
#277=CARTESIAN_POINT('Origin',(-1.81631571136996E-14,0.,-22.8951973769644));
#278=CARTESIAN_POINT('',(-1.00000000000002,3.925,-22.8951973769644));
#279=CARTESIAN_POINT('Origin',(-1.81631571136996E-14,3.925,-22.8951973769644));
#280=CARTESIAN_POINT('',(-1.00000000000002,2.40000000000003,-22.8951973769644));
#281=CARTESIAN_POINT('',(-1.00000000000002,0.,-22.8951973769644));
#282=CARTESIAN_POINT('Origin',(-1.81631571136996E-14,2.40000000000003,-22.8951973769644));
#283=CARTESIAN_POINT('Origin',(-1.81799020282369E-14,-3.925,-22.8951973769644));
#284=CARTESIAN_POINT('Origin',(-1.81799020282369E-14,3.925,-22.8951973769644));
#285=CARTESIAN_POINT('Origin',(-1.81040738505191E-14,0.,22.8951973769644));
#286=CARTESIAN_POINT('',(-1.00000000000002,-2.40000000000005,22.8951973769644));
#287=CARTESIAN_POINT('Origin',(-1.81040738505191E-14,-2.40000000000005,
22.8951973769644));
#288=CARTESIAN_POINT('',(-1.00000000000002,-3.925,22.8951973769644));
#289=CARTESIAN_POINT('',(-1.00000000000002,0.,22.8951973769644));
#290=CARTESIAN_POINT('Origin',(-1.81040738505191E-14,-3.925,22.8951973769644));
#291=CARTESIAN_POINT('Origin',(-1.81040738505191E-14,0.,22.8951973769644));
#292=CARTESIAN_POINT('',(-1.00000000000002,3.925,22.8951973769644));
#293=CARTESIAN_POINT('Origin',(-1.81040738505191E-14,3.925,22.8951973769644));
#294=CARTESIAN_POINT('',(-1.00000000000002,2.40000000000005,22.8951973769644));
#295=CARTESIAN_POINT('',(-1.00000000000002,0.,22.8951973769644));
#296=CARTESIAN_POINT('Origin',(-1.81040738505191E-14,2.40000000000005,22.8951973769644));
#297=CARTESIAN_POINT('Origin',(-1.80411241501588E-14,-3.925,22.8951973769644));
#298=CARTESIAN_POINT('Origin',(-1.80411241501588E-14,3.925,22.8951973769644));
#299=CARTESIAN_POINT('Origin',(1.24999999999999,0.,-25.175));
#300=CARTESIAN_POINT('',(-1.25000000000001,-1.5308084989342E-16,-25.175));
#301=CARTESIAN_POINT('Origin',(-1.02310764377083E-14,0.,-25.175));
#302=CARTESIAN_POINT('Origin',(-5.73267374795652E-15,0.,-22.8951973769644));
#303=CARTESIAN_POINT('',(-1.50000000000002,-1.83697019872105E-16,-20.7715213188049));
#304=CARTESIAN_POINT('Origin',(-8.44151032135773E-15,0.,-20.7715213188049));
#305=CARTESIAN_POINT('Origin',(-5.73267374795652E-15,0.,-22.8951973769644));
#306=CARTESIAN_POINT('Origin',(-1.97215226305253E-30,0.,-4.44089209850063E-15));
#307=CARTESIAN_POINT('',(-1.5,-1.83697019872105E-16,20.7715213188049));
#308=CARTESIAN_POINT('Origin',(8.44151032135772E-15,0.,20.7715213188049));
#309=CARTESIAN_POINT('',(-1.50000000000001,-1.83697019872105E-16,-4.44089209850063E-15));
#310=CARTESIAN_POINT('Origin',(-1.99840667585649E-14,0.,22.8951973769644));
#311=CARTESIAN_POINT('',(-1.24999999999996,-1.53080849893412E-16,25.175));
#312=CARTESIAN_POINT('Origin',(1.02310764377083E-14,0.,25.175));
#313=CARTESIAN_POINT('Origin',(-1.99840667585649E-14,0.,22.8951973769644));
#314=CARTESIAN_POINT('Origin',(-9.37871041806087E-15,0.,25.175));
#315=UNCERTAINTY_MEASURE_WITH_UNIT(LENGTH_MEASURE(0.01),#319,
'DISTANCE_ACCURACY_VALUE',
'Maximum model space distance between geometric entities at asserted c
onnectivities');
#316=UNCERTAINTY_MEASURE_WITH_UNIT(LENGTH_MEASURE(0.01),#319,
'DISTANCE_ACCURACY_VALUE',
'Maximum model space distance between geometric entities at asserted c
onnectivities');
#317=(
GEOMETRIC_REPRESENTATION_CONTEXT(3)
GLOBAL_UNCERTAINTY_ASSIGNED_CONTEXT((#315))
GLOBAL_UNIT_ASSIGNED_CONTEXT((#319,#321,#322))
REPRESENTATION_CONTEXT('','3D')
);
#318=(
GEOMETRIC_REPRESENTATION_CONTEXT(3)
GLOBAL_UNCERTAINTY_ASSIGNED_CONTEXT((#316))
GLOBAL_UNIT_ASSIGNED_CONTEXT((#319,#321,#322))
REPRESENTATION_CONTEXT('','3D')
);
#319=(
LENGTH_UNIT()
NAMED_UNIT(*)
SI_UNIT(.MILLI.,.METRE.)
);
#320=(
LENGTH_UNIT()
NAMED_UNIT(*)
SI_UNIT($,.METRE.)
);
#321=(
NAMED_UNIT(*)
PLANE_ANGLE_UNIT()
SI_UNIT($,.RADIAN.)
);
#322=(
NAMED_UNIT(*)
SI_UNIT($,.STERADIAN.)
SOLID_ANGLE_UNIT()
);
#323=SHAPE_DEFINITION_REPRESENTATION(#324,#325);
#324=PRODUCT_DEFINITION_SHAPE('',$,#327);
#325=SHAPE_REPRESENTATION('',(#181),#317);
#326=PRODUCT_DEFINITION_CONTEXT('part definition',#331,'design');
#327=PRODUCT_DEFINITION('Wheel driveshaft','Wheel driveshaft v1',#328,#326);
#328=PRODUCT_DEFINITION_FORMATION('',$,#333);
#329=PRODUCT_RELATED_PRODUCT_CATEGORY('Wheel driveshaft v1',
'Wheel driveshaft v1',(#333));
#330=APPLICATION_PROTOCOL_DEFINITION('international standard',
'automotive_design',2009,#331);
#331=APPLICATION_CONTEXT(
'Core Data for Automotive Mechanical Design Process');
#332=PRODUCT_CONTEXT('part definition',#331,'mechanical');
#333=PRODUCT('Wheel driveshaft','Wheel driveshaft v1',$,(#332));
#334=PRESENTATION_STYLE_ASSIGNMENT((#335));
#335=SURFACE_STYLE_USAGE(.BOTH.,#336);
#336=SURFACE_SIDE_STYLE('',(#337));
#337=SURFACE_STYLE_FILL_AREA(#338);
#338=FILL_AREA_STYLE('Steel - Satin',(#339));
#339=FILL_AREA_STYLE_COLOUR('Steel - Satin',#340);
#340=COLOUR_RGB('Steel - Satin',0.627450980392157,0.627450980392157,0.627450980392157);
ENDSEC;
END-ISO-10303-21;
